999
"DXF R12 Output" (www.mydxf.blogspot.com)
 0 
SECTION
 2 
HEADER
 9 
$ACADVER
 1 
AC1009
 9 
$EXTMIN
 10 
 0 
 20 
 0 
 9 
$EXTMAX
 10 
 8.5 
 20 
 11 
 0 
ENDSEC
 0 
SECTION
 2 
ENTITIES
0
LINE
8
Layer 1
10
0.793749
20
70.439749
11
-0.793749
21
68.852251
0
LINE
8
Layer 1
10
0.000000
20
70.968915
11
0.000000
21
68.323085
0
LINE
8
Layer 1
10
2.116664
20
68.587668
11
1.058332
21
67.529336
0
LINE
8
Layer 1
10
1.587498
20
69.116834
11
0.529166
21
68.058502
0
LINE
8
Layer 1
10
1.058332
20
69.646000
11
0.000000
21
68.587668
0
LINE
8
Line011
10
6.407395
20
57.695524
11
0.132292
21
57.695524
0
LINE
8
Line011
10
0.132292
20
57.695524
11
0.132292
21
44.481720
0
LINE
8
Line011
10
2.144214
20
10.192028
11
2.176760
21
18.790976
0
LINE
8
Line011
10
2.176760
20
18.790976
11
1.851855
21
27.379340
0
LINE
8
Line011
10
1.851855
20
27.379340
11
1.170154
21
35.946008
0
LINE
8
Line011
10
1.170154
20
35.946008
11
0.132312
21
44.481720
0
LINE
8
Line011
10
2.144971
20
10.192028
11
7.904935
21
10.192028
0
LINE
8
Line011
10
13.023743
20
5.072347
11
12.919761
21
6.104221
0
LINE
8
Line011
10
12.919761
20
6.104221
11
12.621550
21
7.064657
0
LINE
8
Line011
10
12.621550
20
7.064657
11
12.149666
21
7.935135
0
LINE
8
Line011
10
12.149666
20
7.935135
11
11.524748
21
8.691842
0
LINE
8
Line011
10
11.524748
20
8.691842
11
10.767299
21
9.316258
0
LINE
8
Line011
10
10.767299
20
9.316258
11
9.897959
21
9.789862
0
LINE
8
Line011
10
9.897959
20
9.789862
11
8.937285
21
10.086195
0
LINE
8
Line011
10
8.937285
20
10.086195
11
7.905834
21
10.192028
0
LINE
8
Line011
10
13.024616
20
5.074993
11
13.024616
21
0.132582
0
LINE
8
Line011
10
13.024616
20
0.132582
11
52.571704
21
0.132582
0
LINE
8
Line011
10
52.571704
20
0.132582
11
52.571704
21
3.963744
0
LINE
8
Line011
10
57.702233
20
9.094009
11
56.696553
21
8.996113
0
LINE
8
Line011
10
56.696553
20
8.996113
11
55.738763
21
8.705072
0
LINE
8
Line011
10
55.738763
20
8.705072
11
54.855585
21
8.231468
0
LINE
8
Line011
10
54.855585
20
8.231468
11
54.074271
21
7.591177
0
LINE
8
Line011
10
54.074271
20
7.591177
11
53.433451
21
6.810657
0
LINE
8
Line011
10
53.433451
20
6.810657
11
52.961964
21
5.926950
0
LINE
8
Line011
10
52.961964
20
5.926950
11
52.670923
21
4.969160
0
LINE
8
Line011
10
52.670923
20
4.969160
11
52.571440
21
3.963744
0
LINE
8
Line011
10
57.701969
20
9.094009
11
63.464587
21
9.094009
0
LINE
8
Line011
10
65.330426
20
42.348123
11
64.360994
21
34.067998
0
LINE
8
Line011
10
64.360994
20
34.067998
11
63.726259
21
25.760092
0
LINE
8
Line011
10
63.726259
20
25.760092
11
63.427016
21
17.431019
0
LINE
8
Line011
10
63.427016
20
17.431019
11
63.463793
21
9.094009
0
LINE
8
Line011
10
65.330426
20
42.348123
11
65.283065
21
44.481720
0
LINE
8
Line011
10
65.282272
20
44.481720
11
65.282272
21
57.695524
0
LINE
8
Line011
10
65.282272
20
57.695524
11
58.834384
21
57.695524
0
LINE
8
Line011
10
53.715497
20
62.826318
11
53.819478
21
61.793915
0
LINE
8
Line011
10
53.819478
20
61.793915
11
54.117398
21
60.832156
0
LINE
8
Line011
10
54.117398
20
60.832156
11
54.588885
21
59.961678
0
LINE
8
Line011
10
54.588885
20
59.961678
11
55.213830
21
59.202854
0
LINE
8
Line011
10
55.213830
20
59.202854
11
55.971067
21
58.576057
0
LINE
8
Line011
10
55.971067
20
58.576057
11
56.840487
21
58.102188
0
LINE
8
Line011
10
56.840487
20
58.102188
11
57.801452
21
57.801887
0
LINE
8
Line011
10
57.801452
20
57.801887
11
58.833326
21
57.695524
0
LINE
8
Line011
10
53.714703
20
62.826318
11
53.714703
21
69.500689
0
LINE
8
Line011
10
53.714703
20
69.500689
11
11.527102
21
69.513918
0
LINE
8
Line011
10
11.527102
20
69.513918
11
11.527102
21
62.986126
0
LINE
8
Line011
10
6.408321
20
57.695524
11
7.432336
21
57.800828
0
LINE
8
Line011
10
7.432336
20
57.800828
11
8.405420
21
58.104570
0
LINE
8
Line011
10
8.405420
20
58.104570
11
9.299314
21
58.594577
0
LINE
8
Line011
10
9.299314
20
58.594577
11
10.085628
21
59.258945
0
LINE
8
Line011
10
10.085628
20
59.258945
11
10.723511
21
60.066717
0
LINE
8
Line011
10
10.723511
20
60.066717
11
11.183647
21
60.976354
0
LINE
8
Line011
10
11.183647
20
60.976354
11
11.454898
21
61.959015
0
LINE
8
Line011
10
11.454898
20
61.959015
11
11.526176
21
62.986126
 0 
ENDSEC
 0 
EOF