0
SECTION
2
HEADER
9
$INSUNITS
70
4
9
$ACADVER
1
AC1014
9
$HANDSEED
5
FFFF
0
ENDSEC
0
SECTION
2
TABLES
0
TABLE
2
VPORT
5
8
100
AcDbSymbolTable
0
ENDTAB
0
TABLE
2
LTYPE
5
5
100
AcDbSymbolTable
0
LTYPE
5
14
100
AcDbSymbolTableRecord
100
AcDbLinetypeTableRecord
2
BYBLOCK
70
0
0
LTYPE
5
15
100
AcDbSymbolTableRecord
100
AcDbLinetypeTableRecord
2
BYLAYER
70
0
0
LTYPE
5
16
100
AcDbSymbolTableRecord
100
AcDbLinetypeTableRecord
2
DASHED
70
0
3
Dashed __ __ __ __ __ __ __ __ __ __ __ __ __ _
72
65
73
2
40
0.75
49
0.5
74
0
49
-0.25
74
0
0
ENDTAB
0
TABLE
2
LAYER
5
2
100
AcDbSymbolTable
70
2
0
LAYER
5
50
100
AcDbSymbolTableRecord
100
AcDbLayerTableRecord
2
0
70
0
62
7
6
CONTINUOUS
0
ENDTAB
0
TABLE
2
STYLE
5
3
100
AcDbSymbolTable
70
1
0
STYLE
5
11
100
AcDbSymbolTableRecord
100
AcDbTextStyleTableRecord
2
STANDARD
70
0
0
ENDTAB
0
TABLE
2
VIEW
5
6
100
AcDbSymbolTable
70
0
0
ENDTAB
0
TABLE
2
UCS
5
7
100
AcDbSymbolTable
70
0
0
ENDTAB
0
TABLE
2
APPID
5
9
100
AcDbSymbolTable
70
2
0
APPID
5
12
100
AcDbSymbolTableRecord
100
AcDbRegAppTableRecord
2
ACAD
70
0
0
ENDTAB
0
TABLE
2
DIMSTYLE
5
A
100
AcDbSymbolTable
70
1
0
ENDTAB
0
TABLE
2
BLOCK_RECORD
5
1
100
AcDbSymbolTable
70
1
0
BLOCK_RECORD
5
1F
100
AcDbSymbolTableRecord
100
AcDbBlockTableRecord
2
*MODEL_SPACE
0
BLOCK_RECORD
5
1B
100
AcDbSymbolTableRecord
100
AcDbBlockTableRecord
2
*PAPER_SPACE
0
ENDTAB
0
ENDSEC
0
SECTION
2
BLOCKS
0
BLOCK
5
20
100
AcDbEntity
100
AcDbBlockBegin
2
*MODEL_SPACE
0
ENDBLK
5
21
100
AcDbEntity
100
AcDbBlockEnd
0
BLOCK
5
1C
100
AcDbEntity
100
AcDbBlockBegin
2
*PAPER_SPACE
0
ENDBLK
5
1D
100
AcDbEntity
100
AcDbBlockEnd
0
ENDSEC
0
SECTION
2
ENTITIES
0
LWPOLYLINE
5
100
100
AcDbEntity
8
0
100
AcDbPolyline
90
6
70
1
43
0.0
10
21.100000000000001
20
-42.000000000000014
10
31.931955166061783
20
-42.000000000000014
10
31.931955166061783
20
0
10
5.2292493178558086
20
0
10
5.2292493178558104
20
-3.9999999999999991
10
21.100000000000001
20
-3.9999999999999991
0
LINE
5
101
100
AcDbEntity
8
0
100
AcDbLine
10
-21.200000000000006
20
-58.142794570210967
30
0
11
35.931816574513896
21
-58.142794570210967
31
0
0
LINE
5
102
100
AcDbEntity
8
0
100
AcDbLine
10
31.931955166061783
20
-42.000000000000014
30
0
11
31.931955166061783
21
-58.142794570210967
31
0
0
LINE
5
103
100
AcDbEntity
8
0
100
AcDbLine
10
31.931955166061783
20
-58.142794570210967
30
0
11
-21.200000000000006
21
-58.142794570210967
31
0
0
LINE
5
104
100
AcDbEntity
8
0
100
AcDbLine
10
-21.200000000000006
20
-58.142794570210967
30
0
11
-21.200000000000003
21
9.8654084574325118
31
0
0
LINE
5
105
100
AcDbEntity
8
0
100
AcDbLine
10
13.785977655172514
20
48.320452518084444
30
0
11
13.785977655172514
21
-31.000000000000007
31
0
0
LINE
5
106
100
AcDbEntity
8
0
100
AcDbLine
10
-21.200000000000003
20
9.8654084574325118
30
0
11
15.482519450531989
21
9.8654084574325118
31
0
0
LINE
5
107
100
AcDbEntity
8
0
100
AcDbLine
10
15.482519450531989
20
9.8654084574325118
30
0
11
15.482519450531989
21
72.942359615852013
31
0
0
LINE
5
108
100
AcDbEntity
8
0
100
AcDbLine
10
31.931955166061783
20
71.11606268450997
30
0
11
31.931955166061783
21
73.091000000000008
31
0
0
LINE
5
109
100
AcDbEntity
8
0
100
AcDbLine
10
15.482519450531989
20
72.942359615852013
30
0
11
31.931955166061783
21
72.942359615852013
31
0
0
LINE
5
110
100
AcDbEntity
8
0
100
AcDbLine
10
31.931955166061783
20
72.942359615852013
30
0
11
31.931955166061783
21
-58.142794570210967
31
0
0
ENDSEC
0
SECTION
2
OBJECTS
0
DICTIONARY
5
C
100
AcDbDictionary
3
ACAD_GROUP
350
D
3
ACAD_MLINESTYLE
350
17
0
DICTIONARY
5
D
100
AcDbDictionary
0
DICTIONARY
5
1A
330
C
100
AcDbDictionary
0
DICTIONARY
5
17
100
AcDbDictionary
0
ENDSEC
0
EOF
