0
SECTION
2
HEADER
9
$INSUNITS
70
4
9
$ACADVER
1
AC1014
9
$HANDSEED
5
FFFF
0
ENDSEC
0
SECTION
2
TABLES
0
TABLE
2
VPORT
5
8
100
AcDbSymbolTable
0
ENDTAB
0
TABLE
2
LTYPE
5
5
100
AcDbSymbolTable
0
LTYPE
5
14
100
AcDbSymbolTableRecord
100
AcDbLinetypeTableRecord
2
BYBLOCK
70
0
0
LTYPE
5
15
100
AcDbSymbolTableRecord
100
AcDbLinetypeTableRecord
2
BYLAYER
70
0
0
LTYPE
5
16
100
AcDbSymbolTableRecord
100
AcDbLinetypeTableRecord
2
DASHED
70
0
3
Dashed __ __ __ __ __ __ __ __ __ __ __ __ __ _
72
65
73
2
40
0.75
49
0.5
74
0
49
-0.25
74
0
0
ENDTAB
0
TABLE
2
LAYER
5
2
100
AcDbSymbolTable
70
3
0
LAYER
5
50
100
AcDbSymbolTableRecord
100
AcDbLayerTableRecord
2
1
70
0
62
7
6
DASHED
0
LAYER
5
51
100
AcDbSymbolTableRecord
100
AcDbLayerTableRecord
2
0
70
0
62
7
6
CONTINUOUS
0
ENDTAB
0
TABLE
2
STYLE
5
3
100
AcDbSymbolTable
70
1
0
STYLE
5
11
100
AcDbSymbolTableRecord
100
AcDbTextStyleTableRecord
2
STANDARD
70
0
0
ENDTAB
0
TABLE
2
VIEW
5
6
100
AcDbSymbolTable
70
0
0
ENDTAB
0
TABLE
2
UCS
5
7
100
AcDbSymbolTable
70
0
0
ENDTAB
0
TABLE
2
APPID
5
9
100
AcDbSymbolTable
70
2
0
APPID
5
12
100
AcDbSymbolTableRecord
100
AcDbRegAppTableRecord
2
ACAD
70
0
0
ENDTAB
0
TABLE
2
DIMSTYLE
5
A
100
AcDbSymbolTable
70
1
0
ENDTAB
0
TABLE
2
BLOCK_RECORD
5
1
100
AcDbSymbolTable
70
1
0
BLOCK_RECORD
5
1F
100
AcDbSymbolTableRecord
100
AcDbBlockTableRecord
2
*MODEL_SPACE
0
BLOCK_RECORD
5
1B
100
AcDbSymbolTableRecord
100
AcDbBlockTableRecord
2
*PAPER_SPACE
0
ENDTAB
0
ENDSEC
0
SECTION
2
BLOCKS
0
BLOCK
5
20
100
AcDbEntity
100
AcDbBlockBegin
2
*MODEL_SPACE
0
ENDBLK
5
21
100
AcDbEntity
100
AcDbBlockEnd
0
BLOCK
5
1C
100
AcDbEntity
100
AcDbBlockBegin
2
*PAPER_SPACE
0
ENDBLK
5
1D
100
AcDbEntity
100
AcDbBlockEnd
0
ENDSEC
0
SECTION
2
ENTITIES
0
LINE
5
100
100
AcDbEntity
8
0
100
AcDbLine
10
2.0000000298023224
20
2.0000000298023224
30
0
11
2.0000000298023224
21
0
31
0
0
LINE
5
101
100
AcDbEntity
8
0
100
AcDbLine
10
2.0000000298023224
20
0
30
0
11
0.99999997764825821
21
0
31
0
0
LINE
5
102
100
AcDbEntity
8
0
100
AcDbLine
10
0
20
1.0000000000000002
30
0
11
1.3877787807814457e-16
21
5.9999998435378066
31
0
0
LINE
5
103
100
AcDbEntity
8
0
100
AcDbLine
10
1
20
6.9999998435378075
30
0
11
11.999999709427353
21
6.9999998435378075
31
0
0
LINE
5
104
100
AcDbEntity
8
0
100
AcDbLine
10
12.999999709427357
20
5.9999998435378075
30
0
11
12.999999709427357
21
0.99999999999999978
31
0
0
LINE
5
105
100
AcDbEntity
8
0
100
AcDbLine
10
11.999999731779099
20
0
30
0
11
10.99999975413084
21
0
31
0
0
LINE
5
106
100
AcDbEntity
8
0
100
AcDbLine
10
10.99999975413084
20
0
30
0
11
10.99999975413084
21
1.9999999552965164
31
0
0
ARC
5
107
100
AcDbEntity
8
0
100
AcDbCircle
10
0.99999999999999956
20
0.99999999999999967
30
0
40
0.99999999999999956
210
0
220
-0
230
1
100
AcDbArc
50
180
51
270
0
ARC
5
108
100
AcDbEntity
8
0
100
AcDbCircle
10
0.99999999999999989
20
5.9999998435378075
30
0
40
0.99999999999999978
210
0
220
-0
230
1
100
AcDbArc
50
90
51
180
0
ARC
5
109
100
AcDbEntity
8
0
100
AcDbCircle
10
11.999999709427357
20
5.9999998435378075
30
0
40
1.0000000000000009
210
0
220
-0
230
1
100
AcDbArc
50
0
51
90.000000000000199
0
ARC
5
110
100
AcDbEntity
8
0
100
AcDbCircle
10
11.999999709427357
20
1.0000000000000013
30
0
40
1.0000000000000009
210
-0
220
0
230
1
100
AcDbArc
50
270
51
360
0
LINE
5
111
100
AcDbEntity
8
0
100
AcDbLine
10
2.0000000298023224
20
2.0000000298023224
30
0
11
2.0000000298023224
21
2.4999999441206455
31
0
0
LINE
5
112
100
AcDbEntity
8
0
100
AcDbLine
10
2.0000000298023224
20
2.4999999441206455
30
0
11
10.99999975413084
21
2.4999999441206455
31
0
0
LINE
5
113
100
AcDbEntity
8
0
100
AcDbLine
10
10.99999975413084
20
2.4999999441206455
30
0
11
10.99999975413084
21
1.9999999552965164
31
0
0
ENDSEC
0
SECTION
2
OBJECTS
0
DICTIONARY
5
C
100
AcDbDictionary
3
ACAD_GROUP
350
D
3
ACAD_MLINESTYLE
350
17
0
DICTIONARY
5
D
100
AcDbDictionary
0
DICTIONARY
5
1A
330
C
100
AcDbDictionary
0
DICTIONARY
5
17
100
AcDbDictionary
0
ENDSEC
0
EOF
