999
FreeCAD v0.21 33771 (Git)
  0
SECTION
  2
HEADER
  9
$ACADVER
  1
AC1014
  9
$ACADMAINTVER
 70
     9
  9
$DWGCODEPAGE
  3
ANSI_1252
  9
$TEXTSTYLE
  7
STANDARD
  9
$DIMSTYLE
  2
STANDARD
  9
$DIMTXSTY
  7
STANDARD
  9
$CMLSTYLE
  2
STANDARD
  9
$LUNITS
 70
2
  9
$INSUNITS
 70
4
  9
$PEXTMAX
 10
50
 20
50
 30
50
  9
$PEXTMIN
 10
0
 20
0
 30
0
  9
$HANDSEED
  5
FFFF
  0
ENDSEC
  0
SECTION
  2
CLASSES
  0
CLASS
  1
ACDBDICTIONARYWDFLT
  2
AcDbDictionaryWithDefault
  3
ObjectDBX Classes
 90
        0
280
     0
281
     0
  0
CLASS
  1
XRECORD
  2
AcDbXrecord
  3
ObjectDBX Classes
 90
        0
280
     0
281
     0
  0
CLASS
  1
LWPOLYLINE
  2
AcDbPolyline
  3
ObjectDBX Classes
 90
        0
280
     0
281
     1
  0
ENDSEC
  0
SECTION
  2
TABLES
  0
TABLE
  2
VPORT
  5
20
330
0
100
AcDbSymbolTable
 70
     1
  0
VPORT
  5
21
330
20
100
AcDbSymbolTableRecord
100
AcDbViewportTableRecord
  2
*ACTIVE
 70
     0
  0
ENDTAB
  0
TABLE
  2
LTYPE
  5
22
330
0
100
AcDbSymbolTable
 70
     1
  0
LTYPE
  5
23
330
21
100
AcDbSymbolTableRecord
100
AcDbLinetypeTableRecord
  2
BYBLOCK
 70
     0
  3

 72
    65
 73
     0
 40
0.0
  0
LTYPE
  5
24
330
21
100
AcDbSymbolTableRecord
100
AcDbLinetypeTableRecord
  2
BYLAYER
 70
     0
  3

 72
    65
 73
     0
 40
0.0
  0
LTYPE
  5
25
330
21
100
AcDbSymbolTableRecord
100
AcDbLinetypeTableRecord
  2
CONTINUOUS
 70
     0
  3
Solid line
 72
    65
 73
     0
 40
0.0
  0
ENDTAB
  0
TABLE
  2
LAYER
  5
B8A
330
0
100
AcDbSymbolTable
 70
10
  0
LAYER
  5
B8B
330
B8A
100
AcDbSymbolTableRecord
100
AcDbLayerTableRecord
  2
0
 70
   0
 62
   7
  6
CONTINUOUS
  0
LAYER
  5
B8C
330
B8A
100
AcDbSymbolTableRecord
100
AcDbLayerTableRecord
  2
none
 70
    0
 62
    7
  6
CONTINUOUS
  0
LAYER
  5
B8D
330
B8A
100
AcDbSymbolTableRecord
100
AcDbLayerTableRecord
  2
Wire
 70
    0
 62
    7
  6
CONTINUOUS
  0
LAYER
  5
B8E
330
B8A
100
AcDbSymbolTableRecord
100
AcDbLayerTableRecord
  2
Wire001
 70
    0
 62
    7
  6
CONTINUOUS
  0
LAYER
  5
B8F
330
B8A
100
AcDbSymbolTableRecord
100
AcDbLayerTableRecord
  2
Wire002
 70
    0
 62
    7
  6
CONTINUOUS
  0
LAYER
  5
B90
330
B8A
100
AcDbSymbolTableRecord
100
AcDbLayerTableRecord
  2
Wire003
 70
    0
 62
    7
  6
CONTINUOUS
  0
LAYER
  5
B91
330
B8A
100
AcDbSymbolTableRecord
100
AcDbLayerTableRecord
  2
Wire004
 70
    0
 62
    7
  6
CONTINUOUS
  0
LAYER
  5
B92
330
B8A
100
AcDbSymbolTableRecord
100
AcDbLayerTableRecord
  2
Wire005
 70
    0
 62
    7
  6
CONTINUOUS
  0
LAYER
  5
B93
330
B8A
100
AcDbSymbolTableRecord
100
AcDbLayerTableRecord
  2
Wire006
 70
    0
 62
    7
  6
CONTINUOUS
  0
LAYER
  5
B94
330
B8A
100
AcDbSymbolTableRecord
100
AcDbLayerTableRecord
  2
Wire007
 70
    0
 62
    7
  6
CONTINUOUS
  0
ENDTAB
  0
TABLE
  2
STYLE
  5
70
330
0
100
AcDbSymbolTable
 70
     2
  0
STYLE
  5
71
330
70
100
AcDbSymbolTableRecord
100
AcDbTextStyleTableRecord
  2
STANDARD
 70
     0
 40
0.0
 41
1.0
 50
0.0
 71
     0
 42
2.5
  3
arial.ttf
  4

  0
STYLE
  5
72
330
70
100
AcDbSymbolTableRecord
100
AcDbTextStyleTableRecord
  2
ANNOTATIVE
 70
     0
 40
0.0
 41
1.0
 50
0.0
 71
     0
 42
2.5
  3
arial.ttf
  4

  0
ENDTAB
  0
TABLE
  2
VIEW
  5
73
330
0
100
AcDbSymbolTable
 70
     0
  0
ENDTAB
  0
TABLE
  2
UCS
  5
74
330
0
100
AcDbSymbolTable
 70
     0
  0
ENDTAB
  0
TABLE
  2
APPID
  5
75
330
0
100
AcDbSymbolTable
 70
     2
  0
APPID
  5
76
330
75
100
AcDbSymbolTableRecord
100
AcDbRegAppTableRecord
  2
ACAD
 70
     0
  0
APPID
  5
77
330
75
100
AcDbSymbolTableRecord
100
AcDbRegAppTableRecord
  2
ACADANNOTATIVE
 70
     0
  0
ENDTAB
  0
TABLE
  2
DIMSTYLE
  5
78
330
0
100
AcDbSymbolTable
 70
     2
  0
DIMSTYLE
105
79
330
78
100
AcDbSymbolTableRecord
100
AcDbDimStyleTableRecord
  2
STANDARD
 70
     0
  3

  4

  5

  6

  7

 40
0.0
 41
2.5
 42
0.625
 43
3.75
 44
1.25
 45
0.0
 46
0.0
 47
0.0
 48
0.0
140
2.5
141
2.5
142
0.0
143
0.03937007874016
144
1.0
145
0.0
146
1.0
147
0.625
 71
     0
 72
     0
 73
     0
 74
     0
 75
     0
 76
     0
 77
     1
 78
     8
170
     0
171
     3
172
     1
173
     0
174
     0
175
     0
176
     0
177
     0
178
     0
270
     2
271
     2
272
     2
273
     2
274
     3
340
71
275
     0
280
     0
281
     0
282
     0
283
     0
284
     8
285
     0
286
     0
287
     3
288
     0
  0
ENDTAB
  0
TABLE
  2
BLOCK_RECORD
  5
A01
330
0
100
AcDbSymbolTable
  70
5
  0
BLOCK_RECORD
  5
A02
330
A01
100
AcDbSymbolTableRecord
100
AcDbBlockTableRecord
  2
*MODEL_SPACE
  0
BLOCK_RECORD
  5
A03
330
A01
100
AcDbSymbolTableRecord
100
AcDbBlockTableRecord
  2
*PAPER_SPACE
  0
ENDTAB
  0
ENDSEC
  0
SECTION
  2
BLOCKS
  0
BLOCK
  5
A04
330
A02
100
AcDbEntity
  8
0
100
AcDbBlockBegin
  2
*MODEL_SPACE
 70
   0
 10
0
 20
0
 30
0
  3
*MODEL_SPACE
  1
 
  0
ENDBLK
  5
A05
330
A02
100
AcDbEntity
  8
0
100
AcDbBlockEnd
  0
BLOCK
  5
A06
330
A03
100
AcDbEntity
 67
1
  8
0
100
AcDbBlockBegin
  2
*PAPER_SPACE
 70
   0
 10
0
 20
0
 30
0
  3
*PAPER_SPACE
  1
 
  0
ENDBLK
  5
A07
330
A03
100
AcDbEntity
 67
    1
  8
0
100
AcDbBlockEnd
  0
ENDSEC
  0
SECTION
  2
ENTITIES
  0
LINE
  5
A08
330
A02
100
AcDbEntity
  8
Wire
100
AcDbLine
 10
395.456
 20
330.47
 30
0
 11
395.397
 21
330.327
 31
0
  0
LINE
  5
A09
330
A02
100
AcDbEntity
  8
Wire
100
AcDbLine
 10
395.397
 20
330.327
 30
0
 11
395.323
 21
330.192
 31
0
  0
LINE
  5
A0A
330
A02
100
AcDbEntity
  8
Wire
100
AcDbLine
 10
395.323
 20
330.192
 30
0
 11
395.235
 21
330.064
 31
0
  0
LINE
  5
A0B
330
A02
100
AcDbEntity
  8
Wire
100
AcDbLine
 10
395.235
 20
330.064
 30
0
 11
395.137
 21
329.946
 31
0
  0
LINE
  5
A0C
330
A02
100
AcDbEntity
  8
Wire
100
AcDbLine
 10
395.137
 20
329.946
 30
0
 11
395.026
 21
329.838
 31
0
  0
LINE
  5
A0D
330
A02
100
AcDbEntity
  8
Wire
100
AcDbLine
 10
395.026
 20
329.838
 30
0
 11
394.905
 21
329.741
 31
0
  0
LINE
  5
A0E
330
A02
100
AcDbEntity
  8
Wire
100
AcDbLine
 10
394.905
 20
329.741
 30
0
 11
394.775
 21
329.658
 31
0
  0
LINE
  5
A0F
330
A02
100
AcDbEntity
  8
Wire
100
AcDbLine
 10
394.775
 20
329.658
 30
0
 11
394.638
 21
329.587
 31
0
  0
LINE
  5
A10
330
A02
100
AcDbEntity
  8
Wire
100
AcDbLine
 10
394.638
 20
329.587
 30
0
 11
394.494
 21
329.531
 31
0
  0
LINE
  5
A11
330
A02
100
AcDbEntity
  8
Wire
100
AcDbLine
 10
394.494
 20
329.531
 30
0
 11
394.345
 21
329.489
 31
0
  0
LINE
  5
A12
330
A02
100
AcDbEntity
  8
Wire
100
AcDbLine
 10
394.345
 20
329.489
 30
0
 11
394.193
 21
329.462
 31
0
  0
LINE
  5
A13
330
A02
100
AcDbEntity
  8
Wire
100
AcDbLine
 10
394.193
 20
329.462
 30
0
 11
394.039
 21
329.451
 31
0
  0
LINE
  5
A14
330
A02
100
AcDbEntity
  8
Wire
100
AcDbLine
 10
394.039
 20
329.451
 30
0
 11
393.884
 21
329.455
 31
0
  0
LINE
  5
A15
330
A02
100
AcDbEntity
  8
Wire
100
AcDbLine
 10
393.884
 20
329.455
 30
0
 11
393.73
 21
329.474
 31
0
  0
LINE
  5
A16
330
A02
100
AcDbEntity
  8
Wire
100
AcDbLine
 10
393.73
 20
329.474
 30
0
 11
393.58
 21
329.508
 31
0
  0
LINE
  5
A17
330
A02
100
AcDbEntity
  8
Wire
100
AcDbLine
 10
393.58
 20
329.508
 30
0
 11
393.434
 21
329.557
 31
0
  0
LINE
  5
A18
330
A02
100
AcDbEntity
  8
Wire
100
AcDbLine
 10
393.434
 20
329.557
 30
0
 11
393.293
 21
329.621
 31
0
  0
LINE
  5
A19
330
A02
100
AcDbEntity
  8
Wire
100
AcDbLine
 10
393.293
 20
329.621
 30
0
 11
393.159
 21
329.698
 31
0
  0
LINE
  5
A1A
330
A02
100
AcDbEntity
  8
Wire
100
AcDbLine
 10
393.159
 20
329.698
 30
0
 11
393.033
 21
329.788
 31
0
  0
LINE
  5
A1B
330
A02
100
AcDbEntity
  8
Wire
100
AcDbLine
 10
393.033
 20
329.788
 30
0
 11
392.918
 21
329.891
 31
0
  0
LINE
  5
A1C
330
A02
100
AcDbEntity
  8
Wire
100
AcDbLine
 10
392.918
 20
329.891
 30
0
 11
392.813
 21
330.003
 31
0
  0
LINE
  5
A1D
330
A02
100
AcDbEntity
  8
Wire
100
AcDbLine
 10
392.813
 20
330.003
 30
0
 11
392.72
 21
330.127
 31
0
  0
LINE
  5
A1E
330
A02
100
AcDbEntity
  8
Wire
100
AcDbLine
 10
392.72
 20
330.127
 30
0
 11
392.639
 21
330.259
 31
0
  0
LINE
  5
A1F
330
A02
100
AcDbEntity
  8
Wire
100
AcDbLine
 10
392.639
 20
330.259
 30
0
 11
392.572
 21
330.398
 31
0
  0
LINE
  5
A20
330
A02
100
AcDbEntity
  8
Wire
100
AcDbLine
 10
392.572
 20
330.398
 30
0
 11
392.519
 21
330.543
 31
0
  0
LINE
  5
A21
330
A02
100
AcDbEntity
  8
Wire
100
AcDbLine
 10
392.519
 20
330.543
 30
0
 11
392.481
 21
330.693
 31
0
  0
LINE
  5
A22
330
A02
100
AcDbEntity
  8
Wire
100
AcDbLine
 10
392.481
 20
330.693
 30
0
 11
392.458
 21
330.846
 31
0
  0
LINE
  5
A23
330
A02
100
AcDbEntity
  8
Wire
100
AcDbLine
 10
392.458
 20
330.846
 30
0
 11
392.45
 21
331
 31
0
  0
LINE
  5
A24
330
A02
100
AcDbEntity
  8
Wire
100
AcDbLine
 10
392.45
 20
331
 30
0
 11
392.458
 21
331.154
 31
0
  0
LINE
  5
A25
330
A02
100
AcDbEntity
  8
Wire
100
AcDbLine
 10
392.458
 20
331.154
 30
0
 11
392.481
 21
331.307
 31
0
  0
LINE
  5
A26
330
A02
100
AcDbEntity
  8
Wire
100
AcDbLine
 10
392.481
 20
331.307
 30
0
 11
392.519
 21
331.457
 31
0
  0
LINE
  5
A27
330
A02
100
AcDbEntity
  8
Wire
100
AcDbLine
 10
392.519
 20
331.457
 30
0
 11
392.572
 21
331.602
 31
0
  0
LINE
  5
A28
330
A02
100
AcDbEntity
  8
Wire
100
AcDbLine
 10
392.572
 20
331.602
 30
0
 11
392.639
 21
331.741
 31
0
  0
LINE
  5
A29
330
A02
100
AcDbEntity
  8
Wire
100
AcDbLine
 10
392.639
 20
331.741
 30
0
 11
392.72
 21
331.873
 31
0
  0
LINE
  5
A2A
330
A02
100
AcDbEntity
  8
Wire
100
AcDbLine
 10
392.72
 20
331.873
 30
0
 11
392.813
 21
331.997
 31
0
  0
LINE
  5
A2B
330
A02
100
AcDbEntity
  8
Wire
100
AcDbLine
 10
392.813
 20
331.997
 30
0
 11
392.918
 21
332.109
 31
0
  0
LINE
  5
A2C
330
A02
100
AcDbEntity
  8
Wire
100
AcDbLine
 10
392.918
 20
332.109
 30
0
 11
393.033
 21
332.212
 31
0
  0
LINE
  5
A2D
330
A02
100
AcDbEntity
  8
Wire
100
AcDbLine
 10
393.033
 20
332.212
 30
0
 11
393.159
 21
332.302
 31
0
  0
LINE
  5
A2E
330
A02
100
AcDbEntity
  8
Wire
100
AcDbLine
 10
393.159
 20
332.302
 30
0
 11
393.293
 21
332.379
 31
0
  0
LINE
  5
A2F
330
A02
100
AcDbEntity
  8
Wire
100
AcDbLine
 10
393.293
 20
332.379
 30
0
 11
393.434
 21
332.443
 31
0
  0
LINE
  5
A30
330
A02
100
AcDbEntity
  8
Wire
100
AcDbLine
 10
393.434
 20
332.443
 30
0
 11
393.58
 21
332.492
 31
0
  0
LINE
  5
A31
330
A02
100
AcDbEntity
  8
Wire
100
AcDbLine
 10
393.58
 20
332.492
 30
0
 11
393.73
 21
332.526
 31
0
  0
LINE
  5
A32
330
A02
100
AcDbEntity
  8
Wire
100
AcDbLine
 10
393.73
 20
332.526
 30
0
 11
393.884
 21
332.545
 31
0
  0
LINE
  5
A33
330
A02
100
AcDbEntity
  8
Wire
100
AcDbLine
 10
393.884
 20
332.545
 30
0
 11
394.039
 21
332.549
 31
0
  0
LINE
  5
A34
330
A02
100
AcDbEntity
  8
Wire
100
AcDbLine
 10
394.039
 20
332.549
 30
0
 11
394.193
 21
332.538
 31
0
  0
LINE
  5
A35
330
A02
100
AcDbEntity
  8
Wire
100
AcDbLine
 10
394.193
 20
332.538
 30
0
 11
394.345
 21
332.511
 31
0
  0
LINE
  5
A36
330
A02
100
AcDbEntity
  8
Wire
100
AcDbLine
 10
394.345
 20
332.511
 30
0
 11
394.494
 21
332.469
 31
0
  0
LINE
  5
A37
330
A02
100
AcDbEntity
  8
Wire
100
AcDbLine
 10
394.494
 20
332.469
 30
0
 11
394.638
 21
332.413
 31
0
  0
LINE
  5
A38
330
A02
100
AcDbEntity
  8
Wire
100
AcDbLine
 10
394.638
 20
332.413
 30
0
 11
394.775
 21
332.342
 31
0
  0
LINE
  5
A39
330
A02
100
AcDbEntity
  8
Wire
100
AcDbLine
 10
394.775
 20
332.342
 30
0
 11
394.905
 21
332.259
 31
0
  0
LINE
  5
A3A
330
A02
100
AcDbEntity
  8
Wire
100
AcDbLine
 10
394.905
 20
332.259
 30
0
 11
395.026
 21
332.162
 31
0
  0
LINE
  5
A3B
330
A02
100
AcDbEntity
  8
Wire
100
AcDbLine
 10
395.026
 20
332.162
 30
0
 11
395.137
 21
332.054
 31
0
  0
LINE
  5
A3C
330
A02
100
AcDbEntity
  8
Wire
100
AcDbLine
 10
395.137
 20
332.054
 30
0
 11
395.235
 21
331.936
 31
0
  0
LINE
  5
A3D
330
A02
100
AcDbEntity
  8
Wire
100
AcDbLine
 10
395.235
 20
331.936
 30
0
 11
395.323
 21
331.808
 31
0
  0
LINE
  5
A3E
330
A02
100
AcDbEntity
  8
Wire
100
AcDbLine
 10
395.323
 20
331.808
 30
0
 11
395.397
 21
331.673
 31
0
  0
LINE
  5
A3F
330
A02
100
AcDbEntity
  8
Wire
100
AcDbLine
 10
395.397
 20
331.673
 30
0
 11
395.456
 21
331.53
 31
0
  0
LINE
  5
A40
330
A02
100
AcDbEntity
  8
Wire
100
AcDbLine
 10
395.456
 20
331.53
 30
0
 11
395.502
 21
331.382
 31
0
  0
LINE
  5
A41
330
A02
100
AcDbEntity
  8
Wire
100
AcDbLine
 10
395.502
 20
331.382
 30
0
 11
395.533
 21
331.231
 31
0
  0
LINE
  5
A42
330
A02
100
AcDbEntity
  8
Wire
100
AcDbLine
 10
395.533
 20
331.231
 30
0
 11
395.548
 21
331.077
 31
0
  0
LINE
  5
A43
330
A02
100
AcDbEntity
  8
Wire
100
AcDbLine
 10
395.548
 20
331.077
 30
0
 11
395.548
 21
330.923
 31
0
  0
LINE
  5
A44
330
A02
100
AcDbEntity
  8
Wire
100
AcDbLine
 10
395.548
 20
330.923
 30
0
 11
395.533
 21
330.769
 31
0
  0
LINE
  5
A45
330
A02
100
AcDbEntity
  8
Wire
100
AcDbLine
 10
395.533
 20
330.769
 30
0
 11
395.502
 21
330.618
 31
0
  0
LINE
  5
A46
330
A02
100
AcDbEntity
  8
Wire
100
AcDbLine
 10
395.502
 20
330.618
 30
0
 11
395.456
 21
330.47
 31
0
  0
LINE
  5
A47
330
A02
100
AcDbEntity
  8
Wire001
100
AcDbLine
 10
504.458
 20
330.846
 30
0
 11
504.45
 21
331
 31
0
  0
LINE
  5
A48
330
A02
100
AcDbEntity
  8
Wire001
100
AcDbLine
 10
504.45
 20
331
 30
0
 11
504.458
 21
331.154
 31
0
  0
LINE
  5
A49
330
A02
100
AcDbEntity
  8
Wire001
100
AcDbLine
 10
504.458
 20
331.154
 30
0
 11
504.481
 21
331.307
 31
0
  0
LINE
  5
A4A
330
A02
100
AcDbEntity
  8
Wire001
100
AcDbLine
 10
504.481
 20
331.307
 30
0
 11
504.519
 21
331.457
 31
0
  0
LINE
  5
A4B
330
A02
100
AcDbEntity
  8
Wire001
100
AcDbLine
 10
504.519
 20
331.457
 30
0
 11
504.572
 21
331.602
 31
0
  0
LINE
  5
A4C
330
A02
100
AcDbEntity
  8
Wire001
100
AcDbLine
 10
504.572
 20
331.602
 30
0
 11
504.639
 21
331.741
 31
0
  0
LINE
  5
A4D
330
A02
100
AcDbEntity
  8
Wire001
100
AcDbLine
 10
504.639
 20
331.741
 30
0
 11
504.72
 21
331.873
 31
0
  0
LINE
  5
A4E
330
A02
100
AcDbEntity
  8
Wire001
100
AcDbLine
 10
504.72
 20
331.873
 30
0
 11
504.813
 21
331.997
 31
0
  0
LINE
  5
A4F
330
A02
100
AcDbEntity
  8
Wire001
100
AcDbLine
 10
504.813
 20
331.997
 30
0
 11
504.918
 21
332.109
 31
0
  0
LINE
  5
A50
330
A02
100
AcDbEntity
  8
Wire001
100
AcDbLine
 10
504.918
 20
332.109
 30
0
 11
505.033
 21
332.212
 31
0
  0
LINE
  5
A51
330
A02
100
AcDbEntity
  8
Wire001
100
AcDbLine
 10
505.033
 20
332.212
 30
0
 11
505.159
 21
332.302
 31
0
  0
LINE
  5
A52
330
A02
100
AcDbEntity
  8
Wire001
100
AcDbLine
 10
505.159
 20
332.302
 30
0
 11
505.293
 21
332.379
 31
0
  0
LINE
  5
A53
330
A02
100
AcDbEntity
  8
Wire001
100
AcDbLine
 10
505.293
 20
332.379
 30
0
 11
505.434
 21
332.443
 31
0
  0
LINE
  5
A54
330
A02
100
AcDbEntity
  8
Wire001
100
AcDbLine
 10
505.434
 20
332.443
 30
0
 11
505.58
 21
332.492
 31
0
  0
LINE
  5
A55
330
A02
100
AcDbEntity
  8
Wire001
100
AcDbLine
 10
505.58
 20
332.492
 30
0
 11
505.73
 21
332.526
 31
0
  0
LINE
  5
A56
330
A02
100
AcDbEntity
  8
Wire001
100
AcDbLine
 10
505.73
 20
332.526
 30
0
 11
505.884
 21
332.545
 31
0
  0
LINE
  5
A57
330
A02
100
AcDbEntity
  8
Wire001
100
AcDbLine
 10
505.884
 20
332.545
 30
0
 11
506.039
 21
332.549
 31
0
  0
LINE
  5
A58
330
A02
100
AcDbEntity
  8
Wire001
100
AcDbLine
 10
506.039
 20
332.549
 30
0
 11
506.193
 21
332.538
 31
0
  0
LINE
  5
A59
330
A02
100
AcDbEntity
  8
Wire001
100
AcDbLine
 10
506.193
 20
332.538
 30
0
 11
506.345
 21
332.511
 31
0
  0
LINE
  5
A5A
330
A02
100
AcDbEntity
  8
Wire001
100
AcDbLine
 10
506.345
 20
332.511
 30
0
 11
506.493
 21
332.469
 31
0
  0
LINE
  5
A5B
330
A02
100
AcDbEntity
  8
Wire001
100
AcDbLine
 10
506.493
 20
332.469
 30
0
 11
506.638
 21
332.413
 31
0
  0
LINE
  5
A5C
330
A02
100
AcDbEntity
  8
Wire001
100
AcDbLine
 10
506.638
 20
332.413
 30
0
 11
506.775
 21
332.342
 31
0
  0
LINE
  5
A5D
330
A02
100
AcDbEntity
  8
Wire001
100
AcDbLine
 10
506.775
 20
332.342
 30
0
 11
506.905
 21
332.259
 31
0
  0
LINE
  5
A5E
330
A02
100
AcDbEntity
  8
Wire001
100
AcDbLine
 10
506.905
 20
332.259
 30
0
 11
507.026
 21
332.162
 31
0
  0
LINE
  5
A5F
330
A02
100
AcDbEntity
  8
Wire001
100
AcDbLine
 10
507.026
 20
332.162
 30
0
 11
507.137
 21
332.054
 31
0
  0
LINE
  5
A60
330
A02
100
AcDbEntity
  8
Wire001
100
AcDbLine
 10
507.137
 20
332.054
 30
0
 11
507.235
 21
331.936
 31
0
  0
LINE
  5
A61
330
A02
100
AcDbEntity
  8
Wire001
100
AcDbLine
 10
507.235
 20
331.936
 30
0
 11
507.323
 21
331.808
 31
0
  0
LINE
  5
A62
330
A02
100
AcDbEntity
  8
Wire001
100
AcDbLine
 10
507.323
 20
331.808
 30
0
 11
507.397
 21
331.673
 31
0
  0
LINE
  5
A63
330
A02
100
AcDbEntity
  8
Wire001
100
AcDbLine
 10
507.397
 20
331.673
 30
0
 11
507.456
 21
331.53
 31
0
  0
LINE
  5
A64
330
A02
100
AcDbEntity
  8
Wire001
100
AcDbLine
 10
507.456
 20
331.53
 30
0
 11
507.502
 21
331.382
 31
0
  0
LINE
  5
A65
330
A02
100
AcDbEntity
  8
Wire001
100
AcDbLine
 10
507.502
 20
331.382
 30
0
 11
507.533
 21
331.232
 31
0
  0
LINE
  5
A66
330
A02
100
AcDbEntity
  8
Wire001
100
AcDbLine
 10
507.533
 20
331.232
 30
0
 11
507.55
 21
331
 31
0
  0
LINE
  5
A67
330
A02
100
AcDbEntity
  8
Wire001
100
AcDbLine
 10
507.55
 20
331
 30
0
 11
507.533
 21
330.768
 31
0
  0
LINE
  5
A68
330
A02
100
AcDbEntity
  8
Wire001
100
AcDbLine
 10
507.533
 20
330.768
 30
0
 11
507.502
 21
330.618
 31
0
  0
LINE
  5
A69
330
A02
100
AcDbEntity
  8
Wire001
100
AcDbLine
 10
507.502
 20
330.618
 30
0
 11
507.456
 21
330.47
 31
0
  0
LINE
  5
A6A
330
A02
100
AcDbEntity
  8
Wire001
100
AcDbLine
 10
507.456
 20
330.47
 30
0
 11
507.397
 21
330.327
 31
0
  0
LINE
  5
A6B
330
A02
100
AcDbEntity
  8
Wire001
100
AcDbLine
 10
507.397
 20
330.327
 30
0
 11
507.323
 21
330.192
 31
0
  0
LINE
  5
A6C
330
A02
100
AcDbEntity
  8
Wire001
100
AcDbLine
 10
507.323
 20
330.192
 30
0
 11
507.235
 21
330.064
 31
0
  0
LINE
  5
A6D
330
A02
100
AcDbEntity
  8
Wire001
100
AcDbLine
 10
507.235
 20
330.064
 30
0
 11
507.137
 21
329.946
 31
0
  0
LINE
  5
A6E
330
A02
100
AcDbEntity
  8
Wire001
100
AcDbLine
 10
507.137
 20
329.946
 30
0
 11
507.026
 21
329.838
 31
0
  0
LINE
  5
A6F
330
A02
100
AcDbEntity
  8
Wire001
100
AcDbLine
 10
507.026
 20
329.838
 30
0
 11
506.905
 21
329.741
 31
0
  0
LINE
  5
A70
330
A02
100
AcDbEntity
  8
Wire001
100
AcDbLine
 10
506.905
 20
329.741
 30
0
 11
506.775
 21
329.658
 31
0
  0
LINE
  5
A71
330
A02
100
AcDbEntity
  8
Wire001
100
AcDbLine
 10
506.775
 20
329.658
 30
0
 11
506.638
 21
329.587
 31
0
  0
LINE
  5
A72
330
A02
100
AcDbEntity
  8
Wire001
100
AcDbLine
 10
506.638
 20
329.587
 30
0
 11
506.493
 21
329.531
 31
0
  0
LINE
  5
A73
330
A02
100
AcDbEntity
  8
Wire001
100
AcDbLine
 10
506.493
 20
329.531
 30
0
 11
506.345
 21
329.489
 31
0
  0
LINE
  5
A74
330
A02
100
AcDbEntity
  8
Wire001
100
AcDbLine
 10
506.345
 20
329.489
 30
0
 11
506.193
 21
329.462
 31
0
  0
LINE
  5
A75
330
A02
100
AcDbEntity
  8
Wire001
100
AcDbLine
 10
506.193
 20
329.462
 30
0
 11
506.039
 21
329.451
 31
0
  0
LINE
  5
A76
330
A02
100
AcDbEntity
  8
Wire001
100
AcDbLine
 10
506.039
 20
329.451
 30
0
 11
505.884
 21
329.455
 31
0
  0
LINE
  5
A77
330
A02
100
AcDbEntity
  8
Wire001
100
AcDbLine
 10
505.884
 20
329.455
 30
0
 11
505.73
 21
329.474
 31
0
  0
LINE
  5
A78
330
A02
100
AcDbEntity
  8
Wire001
100
AcDbLine
 10
505.73
 20
329.474
 30
0
 11
505.58
 21
329.508
 31
0
  0
LINE
  5
A79
330
A02
100
AcDbEntity
  8
Wire001
100
AcDbLine
 10
505.58
 20
329.508
 30
0
 11
505.434
 21
329.557
 31
0
  0
LINE
  5
A7A
330
A02
100
AcDbEntity
  8
Wire001
100
AcDbLine
 10
505.434
 20
329.557
 30
0
 11
505.293
 21
329.621
 31
0
  0
LINE
  5
A7B
330
A02
100
AcDbEntity
  8
Wire001
100
AcDbLine
 10
505.293
 20
329.621
 30
0
 11
505.159
 21
329.698
 31
0
  0
LINE
  5
A7C
330
A02
100
AcDbEntity
  8
Wire001
100
AcDbLine
 10
505.159
 20
329.698
 30
0
 11
505.033
 21
329.788
 31
0
  0
LINE
  5
A7D
330
A02
100
AcDbEntity
  8
Wire001
100
AcDbLine
 10
505.033
 20
329.788
 30
0
 11
504.918
 21
329.891
 31
0
  0
LINE
  5
A7E
330
A02
100
AcDbEntity
  8
Wire001
100
AcDbLine
 10
504.918
 20
329.891
 30
0
 11
504.813
 21
330.003
 31
0
  0
LINE
  5
A7F
330
A02
100
AcDbEntity
  8
Wire001
100
AcDbLine
 10
504.813
 20
330.003
 30
0
 11
504.72
 21
330.127
 31
0
  0
LINE
  5
A80
330
A02
100
AcDbEntity
  8
Wire001
100
AcDbLine
 10
504.72
 20
330.127
 30
0
 11
504.639
 21
330.259
 31
0
  0
LINE
  5
A81
330
A02
100
AcDbEntity
  8
Wire001
100
AcDbLine
 10
504.639
 20
330.259
 30
0
 11
504.572
 21
330.398
 31
0
  0
LINE
  5
A82
330
A02
100
AcDbEntity
  8
Wire001
100
AcDbLine
 10
504.572
 20
330.398
 30
0
 11
504.519
 21
330.543
 31
0
  0
LINE
  5
A83
330
A02
100
AcDbEntity
  8
Wire001
100
AcDbLine
 10
504.519
 20
330.543
 30
0
 11
504.481
 21
330.693
 31
0
  0
LINE
  5
A84
330
A02
100
AcDbEntity
  8
Wire001
100
AcDbLine
 10
504.481
 20
330.693
 30
0
 11
504.458
 21
330.846
 31
0
  0
LINE
  5
A85
330
A02
100
AcDbEntity
  8
Wire002
100
AcDbLine
 10
437.581
 20
307.028
 30
0
 11
461.881
 21
307.028
 31
0
  0
LINE
  5
A86
330
A02
100
AcDbEntity
  8
Wire002
100
AcDbLine
 10
461.881
 20
307.028
 30
0
 11
461.881
 21
293.028
 31
0
  0
LINE
  5
A87
330
A02
100
AcDbEntity
  8
Wire002
100
AcDbLine
 10
461.881
 20
293.028
 30
0
 11
437.581
 21
293.028
 31
0
  0
LINE
  5
A88
330
A02
100
AcDbEntity
  8
Wire002
100
AcDbLine
 10
437.581
 20
293.028
 30
0
 11
437.581
 21
307.028
 31
0
  0
LINE
  5
A89
330
A02
100
AcDbEntity
  8
Wire003
100
AcDbLine
 10
463.348
 20
300.748
 30
0
 11
463.496
 21
300.79
 31
0
  0
LINE
  5
A8A
330
A02
100
AcDbEntity
  8
Wire003
100
AcDbLine
 10
463.496
 20
300.79
 30
0
 11
463.65
 21
300.802
 31
0
  0
LINE
  5
A8B
330
A02
100
AcDbEntity
  8
Wire003
100
AcDbLine
 10
463.65
 20
300.802
 30
0
 11
463.803
 21
300.783
 31
0
  0
LINE
  5
A8C
330
A02
100
AcDbEntity
  8
Wire003
100
AcDbLine
 10
463.803
 20
300.783
 30
0
 11
463.95
 21
300.733
 31
0
  0
LINE
  5
A8D
330
A02
100
AcDbEntity
  8
Wire003
100
AcDbLine
 10
463.95
 20
300.733
 30
0
 11
464.082
 21
300.656
 31
0
  0
LINE
  5
A8E
330
A02
100
AcDbEntity
  8
Wire003
100
AcDbLine
 10
464.082
 20
300.656
 30
0
 11
464.198
 21
300.555
 31
0
  0
LINE
  5
A8F
330
A02
100
AcDbEntity
  8
Wire003
100
AcDbLine
 10
464.198
 20
300.555
 30
0
 11
464.291
 21
300.432
 31
0
  0
LINE
  5
A90
330
A02
100
AcDbEntity
  8
Wire003
100
AcDbLine
 10
464.291
 20
300.432
 30
0
 11
464.359
 21
300.293
 31
0
  0
LINE
  5
A91
330
A02
100
AcDbEntity
  8
Wire003
100
AcDbLine
 10
464.359
 20
300.293
 30
0
 11
464.397
 21
300.143
 31
0
  0
LINE
  5
A92
330
A02
100
AcDbEntity
  8
Wire003
100
AcDbLine
 10
464.397
 20
300.143
 30
0
 11
464.405
 21
299.989
 31
0
  0
LINE
  5
A93
330
A02
100
AcDbEntity
  8
Wire003
100
AcDbLine
 10
464.405
 20
299.989
 30
0
 11
464.382
 21
299.837
 31
0
  0
LINE
  5
A94
330
A02
100
AcDbEntity
  8
Wire003
100
AcDbLine
 10
464.382
 20
299.837
 30
0
 11
464.328
 21
299.692
 31
0
  0
LINE
  5
A95
330
A02
100
AcDbEntity
  8
Wire003
100
AcDbLine
 10
464.328
 20
299.692
 30
0
 11
464.248
 21
299.56
 31
0
  0
LINE
  5
A96
330
A02
100
AcDbEntity
  8
Wire003
100
AcDbLine
 10
464.248
 20
299.56
 30
0
 11
464.144
 21
299.447
 31
0
  0
LINE
  5
A97
330
A02
100
AcDbEntity
  8
Wire003
100
AcDbLine
 10
464.144
 20
299.447
 30
0
 11
464.018
 21
299.357
 31
0
  0
LINE
  5
A98
330
A02
100
AcDbEntity
  8
Wire003
100
AcDbLine
 10
464.018
 20
299.357
 30
0
 11
463.877
 21
299.293
 31
0
  0
LINE
  5
A99
330
A02
100
AcDbEntity
  8
Wire003
100
AcDbLine
 10
463.877
 20
299.293
 30
0
 11
463.727
 21
299.259
 31
0
  0
LINE
  5
A9A
330
A02
100
AcDbEntity
  8
Wire003
100
AcDbLine
 10
463.727
 20
299.259
 30
0
 11
463.573
 21
299.255
 31
0
  0
LINE
  5
A9B
330
A02
100
AcDbEntity
  8
Wire003
100
AcDbLine
 10
463.573
 20
299.255
 30
0
 11
463.421
 21
299.282
 31
0
  0
LINE
  5
A9C
330
A02
100
AcDbEntity
  8
Wire003
100
AcDbLine
 10
463.421
 20
299.282
 30
0
 11
463.277
 21
299.338
 31
0
  0
LINE
  5
A9D
330
A02
100
AcDbEntity
  8
Wire003
100
AcDbLine
 10
463.277
 20
299.338
 30
0
 11
463.148
 21
299.423
 31
0
  0
LINE
  5
A9E
330
A02
100
AcDbEntity
  8
Wire003
100
AcDbLine
 10
463.148
 20
299.423
 30
0
 11
463.037
 21
299.53
 31
0
  0
LINE
  5
A9F
330
A02
100
AcDbEntity
  8
Wire003
100
AcDbLine
 10
463.037
 20
299.53
 30
0
 11
462.95
 21
299.657
 31
0
  0
LINE
  5
AA0
330
A02
100
AcDbEntity
  8
Wire003
100
AcDbLine
 10
462.95
 20
299.657
 30
0
 11
462.891
 21
299.799
 31
0
  0
LINE
  5
AA1
330
A02
100
AcDbEntity
  8
Wire003
100
AcDbLine
 10
462.891
 20
299.799
 30
0
 11
462.86
 21
299.951
 31
0
  0
LINE
  5
AA2
330
A02
100
AcDbEntity
  8
Wire003
100
AcDbLine
 10
462.86
 20
299.951
 30
0
 11
462.86
 21
300.107
 31
0
  0
LINE
  5
AA3
330
A02
100
AcDbEntity
  8
Wire003
100
AcDbLine
 10
462.86
 20
300.107
 30
0
 11
462.871
 21
300.179
 31
0
  0
LINE
  5
AA4
330
A02
100
AcDbEntity
  8
Wire003
100
AcDbLine
 10
462.871
 20
300.179
 30
0
 11
462.917
 21
300.329
 31
0
  0
LINE
  5
AA5
330
A02
100
AcDbEntity
  8
Wire003
100
AcDbLine
 10
462.917
 20
300.329
 30
0
 11
462.991
 21
300.464
 31
0
  0
LINE
  5
AA6
330
A02
100
AcDbEntity
  8
Wire003
100
AcDbLine
 10
462.991
 20
300.464
 30
0
 11
463.09
 21
300.582
 31
0
  0
LINE
  5
AA7
330
A02
100
AcDbEntity
  8
Wire003
100
AcDbLine
 10
463.09
 20
300.582
 30
0
 11
463.211
 21
300.679
 31
0
  0
LINE
  5
AA8
330
A02
100
AcDbEntity
  8
Wire003
100
AcDbLine
 10
463.211
 20
300.679
 30
0
 11
463.348
 21
300.748
 31
0
  0
LINE
  5
AA9
330
A02
100
AcDbEntity
  8
Wire004
100
AcDbLine
 10
436.605
 20
300.066
 30
0
 11
436.596
 21
299.909
 31
0
  0
LINE
  5
AAA
330
A02
100
AcDbEntity
  8
Wire004
100
AcDbLine
 10
436.596
 20
299.909
 30
0
 11
436.582
 21
299.839
 31
0
  0
LINE
  5
AAB
330
A02
100
AcDbEntity
  8
Wire004
100
AcDbLine
 10
436.582
 20
299.839
 30
0
 11
436.529
 21
299.692
 31
0
  0
LINE
  5
AAC
330
A02
100
AcDbEntity
  8
Wire004
100
AcDbLine
 10
436.529
 20
299.692
 30
0
 11
436.448
 21
299.56
 31
0
  0
LINE
  5
AAD
330
A02
100
AcDbEntity
  8
Wire004
100
AcDbLine
 10
436.448
 20
299.56
 30
0
 11
436.344
 21
299.447
 31
0
  0
LINE
  5
AAE
330
A02
100
AcDbEntity
  8
Wire004
100
AcDbLine
 10
436.344
 20
299.447
 30
0
 11
436.218
 21
299.357
 31
0
  0
LINE
  5
AAF
330
A02
100
AcDbEntity
  8
Wire004
100
AcDbLine
 10
436.218
 20
299.357
 30
0
 11
436.077
 21
299.293
 31
0
  0
LINE
  5
AB0
330
A02
100
AcDbEntity
  8
Wire004
100
AcDbLine
 10
436.077
 20
299.293
 30
0
 11
435.927
 21
299.259
 31
0
  0
LINE
  5
AB1
330
A02
100
AcDbEntity
  8
Wire004
100
AcDbLine
 10
435.927
 20
299.259
 30
0
 11
435.773
 21
299.255
 31
0
  0
LINE
  5
AB2
330
A02
100
AcDbEntity
  8
Wire004
100
AcDbLine
 10
435.773
 20
299.255
 30
0
 11
435.621
 21
299.282
 31
0
  0
LINE
  5
AB3
330
A02
100
AcDbEntity
  8
Wire004
100
AcDbLine
 10
435.621
 20
299.282
 30
0
 11
435.477
 21
299.338
 31
0
  0
LINE
  5
AB4
330
A02
100
AcDbEntity
  8
Wire004
100
AcDbLine
 10
435.477
 20
299.338
 30
0
 11
435.348
 21
299.423
 31
0
  0
LINE
  5
AB5
330
A02
100
AcDbEntity
  8
Wire004
100
AcDbLine
 10
435.348
 20
299.423
 30
0
 11
435.237
 21
299.53
 31
0
  0
LINE
  5
AB6
330
A02
100
AcDbEntity
  8
Wire004
100
AcDbLine
 10
435.237
 20
299.53
 30
0
 11
435.15
 21
299.657
 31
0
  0
LINE
  5
AB7
330
A02
100
AcDbEntity
  8
Wire004
100
AcDbLine
 10
435.15
 20
299.657
 30
0
 11
435.091
 21
299.799
 31
0
  0
LINE
  5
AB8
330
A02
100
AcDbEntity
  8
Wire004
100
AcDbLine
 10
435.091
 20
299.799
 30
0
 11
435.06
 21
299.951
 31
0
  0
LINE
  5
AB9
330
A02
100
AcDbEntity
  8
Wire004
100
AcDbLine
 10
435.06
 20
299.951
 30
0
 11
435.06
 21
300.105
 31
0
  0
LINE
  5
ABA
330
A02
100
AcDbEntity
  8
Wire004
100
AcDbLine
 10
435.06
 20
300.105
 30
0
 11
435.091
 21
300.256
 31
0
  0
LINE
  5
ABB
330
A02
100
AcDbEntity
  8
Wire004
100
AcDbLine
 10
435.091
 20
300.256
 30
0
 11
435.15
 21
300.398
 31
0
  0
LINE
  5
ABC
330
A02
100
AcDbEntity
  8
Wire004
100
AcDbLine
 10
435.15
 20
300.398
 30
0
 11
435.237
 21
300.525
 31
0
  0
LINE
  5
ABD
330
A02
100
AcDbEntity
  8
Wire004
100
AcDbLine
 10
435.237
 20
300.525
 30
0
 11
435.348
 21
300.633
 31
0
  0
LINE
  5
ABE
330
A02
100
AcDbEntity
  8
Wire004
100
AcDbLine
 10
435.348
 20
300.633
 30
0
 11
435.477
 21
300.717
 31
0
  0
LINE
  5
ABF
330
A02
100
AcDbEntity
  8
Wire004
100
AcDbLine
 10
435.477
 20
300.717
 30
0
 11
435.621
 21
300.773
 31
0
  0
LINE
  5
AC0
330
A02
100
AcDbEntity
  8
Wire004
100
AcDbLine
 10
435.621
 20
300.773
 30
0
 11
435.773
 21
300.8
 31
0
  0
LINE
  5
AC1
330
A02
100
AcDbEntity
  8
Wire004
100
AcDbLine
 10
435.773
 20
300.8
 30
0
 11
435.927
 21
300.796
 31
0
  0
LINE
  5
AC2
330
A02
100
AcDbEntity
  8
Wire004
100
AcDbLine
 10
435.927
 20
300.796
 30
0
 11
436.077
 21
300.762
 31
0
  0
LINE
  5
AC3
330
A02
100
AcDbEntity
  8
Wire004
100
AcDbLine
 10
436.077
 20
300.762
 30
0
 11
436.218
 21
300.698
 31
0
  0
LINE
  5
AC4
330
A02
100
AcDbEntity
  8
Wire004
100
AcDbLine
 10
436.218
 20
300.698
 30
0
 11
436.344
 21
300.609
 31
0
  0
LINE
  5
AC5
330
A02
100
AcDbEntity
  8
Wire004
100
AcDbLine
 10
436.344
 20
300.609
 30
0
 11
436.448
 21
300.495
 31
0
  0
LINE
  5
AC6
330
A02
100
AcDbEntity
  8
Wire004
100
AcDbLine
 10
436.448
 20
300.495
 30
0
 11
436.529
 21
300.363
 31
0
  0
LINE
  5
AC7
330
A02
100
AcDbEntity
  8
Wire004
100
AcDbLine
 10
436.529
 20
300.363
 30
0
 11
436.582
 21
300.219
 31
0
  0
LINE
  5
AC8
330
A02
100
AcDbEntity
  8
Wire004
100
AcDbLine
 10
436.582
 20
300.219
 30
0
 11
436.605
 21
300.066
 31
0
  0
LINE
  5
AC9
330
A02
100
AcDbEntity
  8
Wire005
100
AcDbLine
 10
394.775
 20
270.342
 30
0
 11
394.905
 21
270.259
 31
0
  0
LINE
  5
ACA
330
A02
100
AcDbEntity
  8
Wire005
100
AcDbLine
 10
394.905
 20
270.259
 30
0
 11
395.026
 21
270.162
 31
0
  0
LINE
  5
ACB
330
A02
100
AcDbEntity
  8
Wire005
100
AcDbLine
 10
395.026
 20
270.162
 30
0
 11
395.137
 21
270.054
 31
0
  0
LINE
  5
ACC
330
A02
100
AcDbEntity
  8
Wire005
100
AcDbLine
 10
395.137
 20
270.054
 30
0
 11
395.235
 21
269.936
 31
0
  0
LINE
  5
ACD
330
A02
100
AcDbEntity
  8
Wire005
100
AcDbLine
 10
395.235
 20
269.936
 30
0
 11
395.323
 21
269.808
 31
0
  0
LINE
  5
ACE
330
A02
100
AcDbEntity
  8
Wire005
100
AcDbLine
 10
395.323
 20
269.808
 30
0
 11
395.397
 21
269.673
 31
0
  0
LINE
  5
ACF
330
A02
100
AcDbEntity
  8
Wire005
100
AcDbLine
 10
395.397
 20
269.673
 30
0
 11
395.456
 21
269.53
 31
0
  0
LINE
  5
AD0
330
A02
100
AcDbEntity
  8
Wire005
100
AcDbLine
 10
395.456
 20
269.53
 30
0
 11
395.502
 21
269.382
 31
0
  0
LINE
  5
AD1
330
A02
100
AcDbEntity
  8
Wire005
100
AcDbLine
 10
395.502
 20
269.382
 30
0
 11
395.533
 21
269.231
 31
0
  0
LINE
  5
AD2
330
A02
100
AcDbEntity
  8
Wire005
100
AcDbLine
 10
395.533
 20
269.231
 30
0
 11
395.548
 21
269.077
 31
0
  0
LINE
  5
AD3
330
A02
100
AcDbEntity
  8
Wire005
100
AcDbLine
 10
395.548
 20
269.077
 30
0
 11
395.548
 21
268.923
 31
0
  0
LINE
  5
AD4
330
A02
100
AcDbEntity
  8
Wire005
100
AcDbLine
 10
395.548
 20
268.923
 30
0
 11
395.533
 21
268.769
 31
0
  0
LINE
  5
AD5
330
A02
100
AcDbEntity
  8
Wire005
100
AcDbLine
 10
395.533
 20
268.769
 30
0
 11
395.502
 21
268.618
 31
0
  0
LINE
  5
AD6
330
A02
100
AcDbEntity
  8
Wire005
100
AcDbLine
 10
395.502
 20
268.618
 30
0
 11
395.456
 21
268.47
 31
0
  0
LINE
  5
AD7
330
A02
100
AcDbEntity
  8
Wire005
100
AcDbLine
 10
395.456
 20
268.47
 30
0
 11
395.397
 21
268.327
 31
0
  0
LINE
  5
AD8
330
A02
100
AcDbEntity
  8
Wire005
100
AcDbLine
 10
395.397
 20
268.327
 30
0
 11
395.323
 21
268.192
 31
0
  0
LINE
  5
AD9
330
A02
100
AcDbEntity
  8
Wire005
100
AcDbLine
 10
395.323
 20
268.192
 30
0
 11
395.235
 21
268.064
 31
0
  0
LINE
  5
ADA
330
A02
100
AcDbEntity
  8
Wire005
100
AcDbLine
 10
395.235
 20
268.064
 30
0
 11
395.137
 21
267.946
 31
0
  0
LINE
  5
ADB
330
A02
100
AcDbEntity
  8
Wire005
100
AcDbLine
 10
395.137
 20
267.946
 30
0
 11
395.026
 21
267.838
 31
0
  0
LINE
  5
ADC
330
A02
100
AcDbEntity
  8
Wire005
100
AcDbLine
 10
395.026
 20
267.838
 30
0
 11
394.905
 21
267.741
 31
0
  0
LINE
  5
ADD
330
A02
100
AcDbEntity
  8
Wire005
100
AcDbLine
 10
394.905
 20
267.741
 30
0
 11
394.775
 21
267.658
 31
0
  0
LINE
  5
ADE
330
A02
100
AcDbEntity
  8
Wire005
100
AcDbLine
 10
394.775
 20
267.658
 30
0
 11
394.638
 21
267.587
 31
0
  0
LINE
  5
ADF
330
A02
100
AcDbEntity
  8
Wire005
100
AcDbLine
 10
394.638
 20
267.587
 30
0
 11
394.494
 21
267.531
 31
0
  0
LINE
  5
AE0
330
A02
100
AcDbEntity
  8
Wire005
100
AcDbLine
 10
394.494
 20
267.531
 30
0
 11
394.345
 21
267.489
 31
0
  0
LINE
  5
AE1
330
A02
100
AcDbEntity
  8
Wire005
100
AcDbLine
 10
394.345
 20
267.489
 30
0
 11
394.193
 21
267.462
 31
0
  0
LINE
  5
AE2
330
A02
100
AcDbEntity
  8
Wire005
100
AcDbLine
 10
394.193
 20
267.462
 30
0
 11
394.039
 21
267.451
 31
0
  0
LINE
  5
AE3
330
A02
100
AcDbEntity
  8
Wire005
100
AcDbLine
 10
394.039
 20
267.451
 30
0
 11
393.884
 21
267.455
 31
0
  0
LINE
  5
AE4
330
A02
100
AcDbEntity
  8
Wire005
100
AcDbLine
 10
393.884
 20
267.455
 30
0
 11
393.73
 21
267.474
 31
0
  0
LINE
  5
AE5
330
A02
100
AcDbEntity
  8
Wire005
100
AcDbLine
 10
393.73
 20
267.474
 30
0
 11
393.58
 21
267.508
 31
0
  0
LINE
  5
AE6
330
A02
100
AcDbEntity
  8
Wire005
100
AcDbLine
 10
393.58
 20
267.508
 30
0
 11
393.434
 21
267.557
 31
0
  0
LINE
  5
AE7
330
A02
100
AcDbEntity
  8
Wire005
100
AcDbLine
 10
393.434
 20
267.557
 30
0
 11
393.293
 21
267.621
 31
0
  0
LINE
  5
AE8
330
A02
100
AcDbEntity
  8
Wire005
100
AcDbLine
 10
393.293
 20
267.621
 30
0
 11
393.159
 21
267.698
 31
0
  0
LINE
  5
AE9
330
A02
100
AcDbEntity
  8
Wire005
100
AcDbLine
 10
393.159
 20
267.698
 30
0
 11
393.033
 21
267.788
 31
0
  0
LINE
  5
AEA
330
A02
100
AcDbEntity
  8
Wire005
100
AcDbLine
 10
393.033
 20
267.788
 30
0
 11
392.918
 21
267.891
 31
0
  0
LINE
  5
AEB
330
A02
100
AcDbEntity
  8
Wire005
100
AcDbLine
 10
392.918
 20
267.891
 30
0
 11
392.813
 21
268.003
 31
0
  0
LINE
  5
AEC
330
A02
100
AcDbEntity
  8
Wire005
100
AcDbLine
 10
392.813
 20
268.003
 30
0
 11
392.72
 21
268.127
 31
0
  0
LINE
  5
AED
330
A02
100
AcDbEntity
  8
Wire005
100
AcDbLine
 10
392.72
 20
268.127
 30
0
 11
392.639
 21
268.259
 31
0
  0
LINE
  5
AEE
330
A02
100
AcDbEntity
  8
Wire005
100
AcDbLine
 10
392.639
 20
268.259
 30
0
 11
392.572
 21
268.398
 31
0
  0
LINE
  5
AEF
330
A02
100
AcDbEntity
  8
Wire005
100
AcDbLine
 10
392.572
 20
268.398
 30
0
 11
392.519
 21
268.543
 31
0
  0
LINE
  5
AF0
330
A02
100
AcDbEntity
  8
Wire005
100
AcDbLine
 10
392.519
 20
268.543
 30
0
 11
392.481
 21
268.693
 31
0
  0
LINE
  5
AF1
330
A02
100
AcDbEntity
  8
Wire005
100
AcDbLine
 10
392.481
 20
268.693
 30
0
 11
392.458
 21
268.846
 31
0
  0
LINE
  5
AF2
330
A02
100
AcDbEntity
  8
Wire005
100
AcDbLine
 10
392.458
 20
268.846
 30
0
 11
392.45
 21
269
 31
0
  0
LINE
  5
AF3
330
A02
100
AcDbEntity
  8
Wire005
100
AcDbLine
 10
392.45
 20
269
 30
0
 11
392.458
 21
269.154
 31
0
  0
LINE
  5
AF4
330
A02
100
AcDbEntity
  8
Wire005
100
AcDbLine
 10
392.458
 20
269.154
 30
0
 11
392.481
 21
269.307
 31
0
  0
LINE
  5
AF5
330
A02
100
AcDbEntity
  8
Wire005
100
AcDbLine
 10
392.481
 20
269.307
 30
0
 11
392.519
 21
269.457
 31
0
  0
LINE
  5
AF6
330
A02
100
AcDbEntity
  8
Wire005
100
AcDbLine
 10
392.519
 20
269.457
 30
0
 11
392.572
 21
269.602
 31
0
  0
LINE
  5
AF7
330
A02
100
AcDbEntity
  8
Wire005
100
AcDbLine
 10
392.572
 20
269.602
 30
0
 11
392.639
 21
269.741
 31
0
  0
LINE
  5
AF8
330
A02
100
AcDbEntity
  8
Wire005
100
AcDbLine
 10
392.639
 20
269.741
 30
0
 11
392.72
 21
269.873
 31
0
  0
LINE
  5
AF9
330
A02
100
AcDbEntity
  8
Wire005
100
AcDbLine
 10
392.72
 20
269.873
 30
0
 11
392.813
 21
269.997
 31
0
  0
LINE
  5
AFA
330
A02
100
AcDbEntity
  8
Wire005
100
AcDbLine
 10
392.813
 20
269.997
 30
0
 11
392.918
 21
270.109
 31
0
  0
LINE
  5
AFB
330
A02
100
AcDbEntity
  8
Wire005
100
AcDbLine
 10
392.918
 20
270.109
 30
0
 11
393.033
 21
270.212
 31
0
  0
LINE
  5
AFC
330
A02
100
AcDbEntity
  8
Wire005
100
AcDbLine
 10
393.033
 20
270.212
 30
0
 11
393.159
 21
270.302
 31
0
  0
LINE
  5
AFD
330
A02
100
AcDbEntity
  8
Wire005
100
AcDbLine
 10
393.159
 20
270.302
 30
0
 11
393.293
 21
270.379
 31
0
  0
LINE
  5
AFE
330
A02
100
AcDbEntity
  8
Wire005
100
AcDbLine
 10
393.293
 20
270.379
 30
0
 11
393.434
 21
270.443
 31
0
  0
LINE
  5
AFF
330
A02
100
AcDbEntity
  8
Wire005
100
AcDbLine
 10
393.434
 20
270.443
 30
0
 11
393.58
 21
270.492
 31
0
  0
LINE
  5
B00
330
A02
100
AcDbEntity
  8
Wire005
100
AcDbLine
 10
393.58
 20
270.492
 30
0
 11
393.73
 21
270.526
 31
0
  0
LINE
  5
B01
330
A02
100
AcDbEntity
  8
Wire005
100
AcDbLine
 10
393.73
 20
270.526
 30
0
 11
393.884
 21
270.545
 31
0
  0
LINE
  5
B02
330
A02
100
AcDbEntity
  8
Wire005
100
AcDbLine
 10
393.884
 20
270.545
 30
0
 11
394.039
 21
270.549
 31
0
  0
LINE
  5
B03
330
A02
100
AcDbEntity
  8
Wire005
100
AcDbLine
 10
394.039
 20
270.549
 30
0
 11
394.193
 21
270.538
 31
0
  0
LINE
  5
B04
330
A02
100
AcDbEntity
  8
Wire005
100
AcDbLine
 10
394.193
 20
270.538
 30
0
 11
394.345
 21
270.511
 31
0
  0
LINE
  5
B05
330
A02
100
AcDbEntity
  8
Wire005
100
AcDbLine
 10
394.345
 20
270.511
 30
0
 11
394.494
 21
270.469
 31
0
  0
LINE
  5
B06
330
A02
100
AcDbEntity
  8
Wire005
100
AcDbLine
 10
394.494
 20
270.469
 30
0
 11
394.638
 21
270.413
 31
0
  0
LINE
  5
B07
330
A02
100
AcDbEntity
  8
Wire005
100
AcDbLine
 10
394.638
 20
270.413
 30
0
 11
394.775
 21
270.342
 31
0
  0
LINE
  5
B08
330
A02
100
AcDbEntity
  8
Wire006
100
AcDbLine
 10
504.45
 20
269
 30
0
 11
504.458
 21
269.154
 31
0
  0
LINE
  5
B09
330
A02
100
AcDbEntity
  8
Wire006
100
AcDbLine
 10
504.458
 20
269.154
 30
0
 11
504.481
 21
269.307
 31
0
  0
LINE
  5
B0A
330
A02
100
AcDbEntity
  8
Wire006
100
AcDbLine
 10
504.481
 20
269.307
 30
0
 11
504.519
 21
269.457
 31
0
  0
LINE
  5
B0B
330
A02
100
AcDbEntity
  8
Wire006
100
AcDbLine
 10
504.519
 20
269.457
 30
0
 11
504.572
 21
269.602
 31
0
  0
LINE
  5
B0C
330
A02
100
AcDbEntity
  8
Wire006
100
AcDbLine
 10
504.572
 20
269.602
 30
0
 11
504.639
 21
269.741
 31
0
  0
LINE
  5
B0D
330
A02
100
AcDbEntity
  8
Wire006
100
AcDbLine
 10
504.639
 20
269.741
 30
0
 11
504.72
 21
269.873
 31
0
  0
LINE
  5
B0E
330
A02
100
AcDbEntity
  8
Wire006
100
AcDbLine
 10
504.72
 20
269.873
 30
0
 11
504.813
 21
269.997
 31
0
  0
LINE
  5
B0F
330
A02
100
AcDbEntity
  8
Wire006
100
AcDbLine
 10
504.813
 20
269.997
 30
0
 11
504.918
 21
270.109
 31
0
  0
LINE
  5
B10
330
A02
100
AcDbEntity
  8
Wire006
100
AcDbLine
 10
504.918
 20
270.109
 30
0
 11
505.033
 21
270.212
 31
0
  0
LINE
  5
B11
330
A02
100
AcDbEntity
  8
Wire006
100
AcDbLine
 10
505.033
 20
270.212
 30
0
 11
505.159
 21
270.302
 31
0
  0
LINE
  5
B12
330
A02
100
AcDbEntity
  8
Wire006
100
AcDbLine
 10
505.159
 20
270.302
 30
0
 11
505.293
 21
270.379
 31
0
  0
LINE
  5
B13
330
A02
100
AcDbEntity
  8
Wire006
100
AcDbLine
 10
505.293
 20
270.379
 30
0
 11
505.434
 21
270.443
 31
0
  0
LINE
  5
B14
330
A02
100
AcDbEntity
  8
Wire006
100
AcDbLine
 10
505.434
 20
270.443
 30
0
 11
505.58
 21
270.492
 31
0
  0
LINE
  5
B15
330
A02
100
AcDbEntity
  8
Wire006
100
AcDbLine
 10
505.58
 20
270.492
 30
0
 11
505.73
 21
270.526
 31
0
  0
LINE
  5
B16
330
A02
100
AcDbEntity
  8
Wire006
100
AcDbLine
 10
505.73
 20
270.526
 30
0
 11
505.884
 21
270.545
 31
0
  0
LINE
  5
B17
330
A02
100
AcDbEntity
  8
Wire006
100
AcDbLine
 10
505.884
 20
270.545
 30
0
 11
506.039
 21
270.549
 31
0
  0
LINE
  5
B18
330
A02
100
AcDbEntity
  8
Wire006
100
AcDbLine
 10
506.039
 20
270.549
 30
0
 11
506.193
 21
270.538
 31
0
  0
LINE
  5
B19
330
A02
100
AcDbEntity
  8
Wire006
100
AcDbLine
 10
506.193
 20
270.538
 30
0
 11
506.345
 21
270.511
 31
0
  0
LINE
  5
B1A
330
A02
100
AcDbEntity
  8
Wire006
100
AcDbLine
 10
506.345
 20
270.511
 30
0
 11
506.493
 21
270.469
 31
0
  0
LINE
  5
B1B
330
A02
100
AcDbEntity
  8
Wire006
100
AcDbLine
 10
506.493
 20
270.469
 30
0
 11
506.638
 21
270.413
 31
0
  0
LINE
  5
B1C
330
A02
100
AcDbEntity
  8
Wire006
100
AcDbLine
 10
506.638
 20
270.413
 30
0
 11
506.775
 21
270.342
 31
0
  0
LINE
  5
B1D
330
A02
100
AcDbEntity
  8
Wire006
100
AcDbLine
 10
506.775
 20
270.342
 30
0
 11
506.905
 21
270.259
 31
0
  0
LINE
  5
B1E
330
A02
100
AcDbEntity
  8
Wire006
100
AcDbLine
 10
506.905
 20
270.259
 30
0
 11
507.026
 21
270.162
 31
0
  0
LINE
  5
B1F
330
A02
100
AcDbEntity
  8
Wire006
100
AcDbLine
 10
507.026
 20
270.162
 30
0
 11
507.137
 21
270.054
 31
0
  0
LINE
  5
B20
330
A02
100
AcDbEntity
  8
Wire006
100
AcDbLine
 10
507.137
 20
270.054
 30
0
 11
507.235
 21
269.936
 31
0
  0
LINE
  5
B21
330
A02
100
AcDbEntity
  8
Wire006
100
AcDbLine
 10
507.235
 20
269.936
 30
0
 11
507.323
 21
269.808
 31
0
  0
LINE
  5
B22
330
A02
100
AcDbEntity
  8
Wire006
100
AcDbLine
 10
507.323
 20
269.808
 30
0
 11
507.397
 21
269.673
 31
0
  0
LINE
  5
B23
330
A02
100
AcDbEntity
  8
Wire006
100
AcDbLine
 10
507.397
 20
269.673
 30
0
 11
507.456
 21
269.53
 31
0
  0
LINE
  5
B24
330
A02
100
AcDbEntity
  8
Wire006
100
AcDbLine
 10
507.456
 20
269.53
 30
0
 11
507.502
 21
269.382
 31
0
  0
LINE
  5
B25
330
A02
100
AcDbEntity
  8
Wire006
100
AcDbLine
 10
507.502
 20
269.382
 30
0
 11
507.533
 21
269.232
 31
0
  0
LINE
  5
B26
330
A02
100
AcDbEntity
  8
Wire006
100
AcDbLine
 10
507.533
 20
269.232
 30
0
 11
507.55
 21
269
 31
0
  0
LINE
  5
B27
330
A02
100
AcDbEntity
  8
Wire006
100
AcDbLine
 10
507.55
 20
269
 30
0
 11
507.533
 21
268.768
 31
0
  0
LINE
  5
B28
330
A02
100
AcDbEntity
  8
Wire006
100
AcDbLine
 10
507.533
 20
268.768
 30
0
 11
507.502
 21
268.618
 31
0
  0
LINE
  5
B29
330
A02
100
AcDbEntity
  8
Wire006
100
AcDbLine
 10
507.502
 20
268.618
 30
0
 11
507.456
 21
268.47
 31
0
  0
LINE
  5
B2A
330
A02
100
AcDbEntity
  8
Wire006
100
AcDbLine
 10
507.456
 20
268.47
 30
0
 11
507.397
 21
268.327
 31
0
  0
LINE
  5
B2B
330
A02
100
AcDbEntity
  8
Wire006
100
AcDbLine
 10
507.397
 20
268.327
 30
0
 11
507.323
 21
268.192
 31
0
  0
LINE
  5
B2C
330
A02
100
AcDbEntity
  8
Wire006
100
AcDbLine
 10
507.323
 20
268.192
 30
0
 11
507.235
 21
268.064
 31
0
  0
LINE
  5
B2D
330
A02
100
AcDbEntity
  8
Wire006
100
AcDbLine
 10
507.235
 20
268.064
 30
0
 11
507.137
 21
267.946
 31
0
  0
LINE
  5
B2E
330
A02
100
AcDbEntity
  8
Wire006
100
AcDbLine
 10
507.137
 20
267.946
 30
0
 11
507.026
 21
267.838
 31
0
  0
LINE
  5
B2F
330
A02
100
AcDbEntity
  8
Wire006
100
AcDbLine
 10
507.026
 20
267.838
 30
0
 11
506.905
 21
267.741
 31
0
  0
LINE
  5
B30
330
A02
100
AcDbEntity
  8
Wire006
100
AcDbLine
 10
506.905
 20
267.741
 30
0
 11
506.775
 21
267.658
 31
0
  0
LINE
  5
B31
330
A02
100
AcDbEntity
  8
Wire006
100
AcDbLine
 10
506.775
 20
267.658
 30
0
 11
506.638
 21
267.587
 31
0
  0
LINE
  5
B32
330
A02
100
AcDbEntity
  8
Wire006
100
AcDbLine
 10
506.638
 20
267.587
 30
0
 11
506.493
 21
267.531
 31
0
  0
LINE
  5
B33
330
A02
100
AcDbEntity
  8
Wire006
100
AcDbLine
 10
506.493
 20
267.531
 30
0
 11
506.345
 21
267.489
 31
0
  0
LINE
  5
B34
330
A02
100
AcDbEntity
  8
Wire006
100
AcDbLine
 10
506.345
 20
267.489
 30
0
 11
506.193
 21
267.462
 31
0
  0
LINE
  5
B35
330
A02
100
AcDbEntity
  8
Wire006
100
AcDbLine
 10
506.193
 20
267.462
 30
0
 11
506.039
 21
267.451
 31
0
  0
LINE
  5
B36
330
A02
100
AcDbEntity
  8
Wire006
100
AcDbLine
 10
506.039
 20
267.451
 30
0
 11
505.884
 21
267.455
 31
0
  0
LINE
  5
B37
330
A02
100
AcDbEntity
  8
Wire006
100
AcDbLine
 10
505.884
 20
267.455
 30
0
 11
505.73
 21
267.474
 31
0
  0
LINE
  5
B38
330
A02
100
AcDbEntity
  8
Wire006
100
AcDbLine
 10
505.73
 20
267.474
 30
0
 11
505.58
 21
267.508
 31
0
  0
LINE
  5
B39
330
A02
100
AcDbEntity
  8
Wire006
100
AcDbLine
 10
505.58
 20
267.508
 30
0
 11
505.434
 21
267.557
 31
0
  0
LINE
  5
B3A
330
A02
100
AcDbEntity
  8
Wire006
100
AcDbLine
 10
505.434
 20
267.557
 30
0
 11
505.293
 21
267.621
 31
0
  0
LINE
  5
B3B
330
A02
100
AcDbEntity
  8
Wire006
100
AcDbLine
 10
505.293
 20
267.621
 30
0
 11
505.159
 21
267.698
 31
0
  0
LINE
  5
B3C
330
A02
100
AcDbEntity
  8
Wire006
100
AcDbLine
 10
505.159
 20
267.698
 30
0
 11
505.033
 21
267.788
 31
0
  0
LINE
  5
B3D
330
A02
100
AcDbEntity
  8
Wire006
100
AcDbLine
 10
505.033
 20
267.788
 30
0
 11
504.918
 21
267.891
 31
0
  0
LINE
  5
B3E
330
A02
100
AcDbEntity
  8
Wire006
100
AcDbLine
 10
504.918
 20
267.891
 30
0
 11
504.813
 21
268.003
 31
0
  0
LINE
  5
B3F
330
A02
100
AcDbEntity
  8
Wire006
100
AcDbLine
 10
504.813
 20
268.003
 30
0
 11
504.72
 21
268.127
 31
0
  0
LINE
  5
B40
330
A02
100
AcDbEntity
  8
Wire006
100
AcDbLine
 10
504.72
 20
268.127
 30
0
 11
504.639
 21
268.259
 31
0
  0
LINE
  5
B41
330
A02
100
AcDbEntity
  8
Wire006
100
AcDbLine
 10
504.639
 20
268.259
 30
0
 11
504.572
 21
268.398
 31
0
  0
LINE
  5
B42
330
A02
100
AcDbEntity
  8
Wire006
100
AcDbLine
 10
504.572
 20
268.398
 30
0
 11
504.519
 21
268.543
 31
0
  0
LINE
  5
B43
330
A02
100
AcDbEntity
  8
Wire006
100
AcDbLine
 10
504.519
 20
268.543
 30
0
 11
504.481
 21
268.693
 31
0
  0
LINE
  5
B44
330
A02
100
AcDbEntity
  8
Wire006
100
AcDbLine
 10
504.481
 20
268.693
 30
0
 11
504.458
 21
268.846
 31
0
  0
LINE
  5
B45
330
A02
100
AcDbEntity
  8
Wire006
100
AcDbLine
 10
504.458
 20
268.846
 30
0
 11
504.45
 21
269
 31
0
  0
LINE
  5
B46
330
A02
100
AcDbEntity
  8
Wire007
100
AcDbLine
 10
506.002
 20
264.9
 30
0
 11
393.998
 21
264.9
 31
0
  0
LINE
  5
B47
330
A02
100
AcDbEntity
  8
Wire007
100
AcDbLine
 10
393.998
 20
264.9
 30
0
 11
393.598
 21
264.919
 31
0
  0
LINE
  5
B48
330
A02
100
AcDbEntity
  8
Wire007
100
AcDbLine
 10
393.598
 20
264.919
 30
0
 11
393.2
 21
264.979
 31
0
  0
LINE
  5
B49
330
A02
100
AcDbEntity
  8
Wire007
100
AcDbLine
 10
393.2
 20
264.979
 30
0
 11
392.81
 21
265.076
 31
0
  0
LINE
  5
B4A
330
A02
100
AcDbEntity
  8
Wire007
100
AcDbLine
 10
392.81
 20
265.076
 30
0
 11
392.431
 21
265.211
 31
0
  0
LINE
  5
B4B
330
A02
100
AcDbEntity
  8
Wire007
100
AcDbLine
 10
392.431
 20
265.211
 30
0
 11
392.067
 21
265.384
 31
0
  0
LINE
  5
B4C
330
A02
100
AcDbEntity
  8
Wire007
100
AcDbLine
 10
392.067
 20
265.384
 30
0
 11
391.722
 21
265.591
 31
0
  0
LINE
  5
B4D
330
A02
100
AcDbEntity
  8
Wire007
100
AcDbLine
 10
391.722
 20
265.591
 30
0
 11
391.399
 21
265.831
 31
0
  0
LINE
  5
B4E
330
A02
100
AcDbEntity
  8
Wire007
100
AcDbLine
 10
391.399
 20
265.831
 30
0
 11
391.104
 21
266.097
 31
0
  0
LINE
  5
B4F
330
A02
100
AcDbEntity
  8
Wire007
100
AcDbLine
 10
391.104
 20
266.097
 30
0
 11
390.831
 21
266.398
 31
0
  0
LINE
  5
B50
330
A02
100
AcDbEntity
  8
Wire007
100
AcDbLine
 10
390.831
 20
266.398
 30
0
 11
390.591
 21
266.722
 31
0
  0
LINE
  5
B51
330
A02
100
AcDbEntity
  8
Wire007
100
AcDbLine
 10
390.591
 20
266.722
 30
0
 11
390.384
 21
267.067
 31
0
  0
LINE
  5
B52
330
A02
100
AcDbEntity
  8
Wire007
100
AcDbLine
 10
390.384
 20
267.067
 30
0
 11
390.211
 21
267.431
 31
0
  0
LINE
  5
B53
330
A02
100
AcDbEntity
  8
Wire007
100
AcDbLine
 10
390.211
 20
267.431
 30
0
 11
390.076
 21
267.81
 31
0
  0
LINE
  5
B54
330
A02
100
AcDbEntity
  8
Wire007
100
AcDbLine
 10
390.076
 20
267.81
 30
0
 11
389.979
 21
268.2
 31
0
  0
LINE
  5
B55
330
A02
100
AcDbEntity
  8
Wire007
100
AcDbLine
 10
389.979
 20
268.2
 30
0
 11
389.919
 21
268.598
 31
0
  0
LINE
  5
B56
330
A02
100
AcDbEntity
  8
Wire007
100
AcDbLine
 10
389.919
 20
268.598
 30
0
 11
389.9
 21
268.998
 31
0
  0
LINE
  5
B57
330
A02
100
AcDbEntity
  8
Wire007
100
AcDbLine
 10
389.9
 20
268.998
 30
0
 11
389.9
 21
331.002
 31
0
  0
LINE
  5
B58
330
A02
100
AcDbEntity
  8
Wire007
100
AcDbLine
 10
389.9
 20
331.002
 30
0
 11
389.919
 21
331.402
 31
0
  0
LINE
  5
B59
330
A02
100
AcDbEntity
  8
Wire007
100
AcDbLine
 10
389.919
 20
331.402
 30
0
 11
389.979
 21
331.8
 31
0
  0
LINE
  5
B5A
330
A02
100
AcDbEntity
  8
Wire007
100
AcDbLine
 10
389.979
 20
331.8
 30
0
 11
390.076
 21
332.19
 31
0
  0
LINE
  5
B5B
330
A02
100
AcDbEntity
  8
Wire007
100
AcDbLine
 10
390.076
 20
332.19
 30
0
 11
390.211
 21
332.569
 31
0
  0
LINE
  5
B5C
330
A02
100
AcDbEntity
  8
Wire007
100
AcDbLine
 10
390.211
 20
332.569
 30
0
 11
390.384
 21
332.933
 31
0
  0
LINE
  5
B5D
330
A02
100
AcDbEntity
  8
Wire007
100
AcDbLine
 10
390.384
 20
332.933
 30
0
 11
390.591
 21
333.278
 31
0
  0
LINE
  5
B5E
330
A02
100
AcDbEntity
  8
Wire007
100
AcDbLine
 10
390.591
 20
333.278
 30
0
 11
390.831
 21
333.602
 31
0
  0
LINE
  5
B5F
330
A02
100
AcDbEntity
  8
Wire007
100
AcDbLine
 10
390.831
 20
333.602
 30
0
 11
391.104
 21
333.903
 31
0
  0
LINE
  5
B60
330
A02
100
AcDbEntity
  8
Wire007
100
AcDbLine
 10
391.104
 20
333.903
 30
0
 11
391.399
 21
334.169
 31
0
  0
LINE
  5
B61
330
A02
100
AcDbEntity
  8
Wire007
100
AcDbLine
 10
391.399
 20
334.169
 30
0
 11
391.722
 21
334.409
 31
0
  0
LINE
  5
B62
330
A02
100
AcDbEntity
  8
Wire007
100
AcDbLine
 10
391.722
 20
334.409
 30
0
 11
392.067
 21
334.616
 31
0
  0
LINE
  5
B63
330
A02
100
AcDbEntity
  8
Wire007
100
AcDbLine
 10
392.067
 20
334.616
 30
0
 11
392.431
 21
334.789
 31
0
  0
LINE
  5
B64
330
A02
100
AcDbEntity
  8
Wire007
100
AcDbLine
 10
392.431
 20
334.789
 30
0
 11
392.81
 21
334.924
 31
0
  0
LINE
  5
B65
330
A02
100
AcDbEntity
  8
Wire007
100
AcDbLine
 10
392.81
 20
334.924
 30
0
 11
393.2
 21
335.021
 31
0
  0
LINE
  5
B66
330
A02
100
AcDbEntity
  8
Wire007
100
AcDbLine
 10
393.2
 20
335.021
 30
0
 11
393.598
 21
335.081
 31
0
  0
LINE
  5
B67
330
A02
100
AcDbEntity
  8
Wire007
100
AcDbLine
 10
393.598
 20
335.081
 30
0
 11
393.998
 21
335.1
 31
0
  0
LINE
  5
B68
330
A02
100
AcDbEntity
  8
Wire007
100
AcDbLine
 10
393.998
 20
335.1
 30
0
 11
506.002
 21
335.1
 31
0
  0
LINE
  5
B69
330
A02
100
AcDbEntity
  8
Wire007
100
AcDbLine
 10
506.002
 20
335.1
 30
0
 11
506.402
 21
335.081
 31
0
  0
LINE
  5
B6A
330
A02
100
AcDbEntity
  8
Wire007
100
AcDbLine
 10
506.402
 20
335.081
 30
0
 11
506.8
 21
335.021
 31
0
  0
LINE
  5
B6B
330
A02
100
AcDbEntity
  8
Wire007
100
AcDbLine
 10
506.8
 20
335.021
 30
0
 11
507.19
 21
334.924
 31
0
  0
LINE
  5
B6C
330
A02
100
AcDbEntity
  8
Wire007
100
AcDbLine
 10
507.19
 20
334.924
 30
0
 11
507.569
 21
334.789
 31
0
  0
LINE
  5
B6D
330
A02
100
AcDbEntity
  8
Wire007
100
AcDbLine
 10
507.569
 20
334.789
 30
0
 11
507.933
 21
334.616
 31
0
  0
LINE
  5
B6E
330
A02
100
AcDbEntity
  8
Wire007
100
AcDbLine
 10
507.933
 20
334.616
 30
0
 11
508.278
 21
334.409
 31
0
  0
LINE
  5
B6F
330
A02
100
AcDbEntity
  8
Wire007
100
AcDbLine
 10
508.278
 20
334.409
 30
0
 11
508.602
 21
334.169
 31
0
  0
LINE
  5
B70
330
A02
100
AcDbEntity
  8
Wire007
100
AcDbLine
 10
508.602
 20
334.169
 30
0
 11
508.899
 21
333.899
 31
0
  0
LINE
  5
B71
330
A02
100
AcDbEntity
  8
Wire007
100
AcDbLine
 10
508.899
 20
333.899
 30
0
 11
509.169
 21
333.602
 31
0
  0
LINE
  5
B72
330
A02
100
AcDbEntity
  8
Wire007
100
AcDbLine
 10
509.169
 20
333.602
 30
0
 11
509.409
 21
333.278
 31
0
  0
LINE
  5
B73
330
A02
100
AcDbEntity
  8
Wire007
100
AcDbLine
 10
509.409
 20
333.278
 30
0
 11
509.616
 21
332.933
 31
0
  0
LINE
  5
B74
330
A02
100
AcDbEntity
  8
Wire007
100
AcDbLine
 10
509.616
 20
332.933
 30
0
 11
509.789
 21
332.569
 31
0
  0
LINE
  5
B75
330
A02
100
AcDbEntity
  8
Wire007
100
AcDbLine
 10
509.789
 20
332.569
 30
0
 11
509.924
 21
332.19
 31
0
  0
LINE
  5
B76
330
A02
100
AcDbEntity
  8
Wire007
100
AcDbLine
 10
509.924
 20
332.19
 30
0
 11
510.021
 21
331.8
 31
0
  0
LINE
  5
B77
330
A02
100
AcDbEntity
  8
Wire007
100
AcDbLine
 10
510.021
 20
331.8
 30
0
 11
510.081
 21
331.402
 31
0
  0
LINE
  5
B78
330
A02
100
AcDbEntity
  8
Wire007
100
AcDbLine
 10
510.081
 20
331.402
 30
0
 11
510.1
 21
331.002
 31
0
  0
LINE
  5
B79
330
A02
100
AcDbEntity
  8
Wire007
100
AcDbLine
 10
510.1
 20
331.002
 30
0
 11
510.1
 21
268.998
 31
0
  0
LINE
  5
B7A
330
A02
100
AcDbEntity
  8
Wire007
100
AcDbLine
 10
510.1
 20
268.998
 30
0
 11
510.081
 21
268.598
 31
0
  0
LINE
  5
B7B
330
A02
100
AcDbEntity
  8
Wire007
100
AcDbLine
 10
510.081
 20
268.598
 30
0
 11
510.021
 21
268.2
 31
0
  0
LINE
  5
B7C
330
A02
100
AcDbEntity
  8
Wire007
100
AcDbLine
 10
510.021
 20
268.2
 30
0
 11
509.924
 21
267.81
 31
0
  0
LINE
  5
B7D
330
A02
100
AcDbEntity
  8
Wire007
100
AcDbLine
 10
509.924
 20
267.81
 30
0
 11
509.789
 21
267.431
 31
0
  0
LINE
  5
B7E
330
A02
100
AcDbEntity
  8
Wire007
100
AcDbLine
 10
509.789
 20
267.431
 30
0
 11
509.616
 21
267.067
 31
0
  0
LINE
  5
B7F
330
A02
100
AcDbEntity
  8
Wire007
100
AcDbLine
 10
509.616
 20
267.067
 30
0
 11
509.409
 21
266.722
 31
0
  0
LINE
  5
B80
330
A02
100
AcDbEntity
  8
Wire007
100
AcDbLine
 10
509.409
 20
266.722
 30
0
 11
509.169
 21
266.399
 31
0
  0
LINE
  5
B81
330
A02
100
AcDbEntity
  8
Wire007
100
AcDbLine
 10
509.169
 20
266.399
 30
0
 11
508.903
 21
266.104
 31
0
  0
LINE
  5
B82
330
A02
100
AcDbEntity
  8
Wire007
100
AcDbLine
 10
508.903
 20
266.104
 30
0
 11
508.602
 21
265.831
 31
0
  0
LINE
  5
B83
330
A02
100
AcDbEntity
  8
Wire007
100
AcDbLine
 10
508.602
 20
265.831
 30
0
 11
508.278
 21
265.591
 31
0
  0
LINE
  5
B84
330
A02
100
AcDbEntity
  8
Wire007
100
AcDbLine
 10
508.278
 20
265.591
 30
0
 11
507.933
 21
265.384
 31
0
  0
LINE
  5
B85
330
A02
100
AcDbEntity
  8
Wire007
100
AcDbLine
 10
507.933
 20
265.384
 30
0
 11
507.569
 21
265.211
 31
0
  0
LINE
  5
B86
330
A02
100
AcDbEntity
  8
Wire007
100
AcDbLine
 10
507.569
 20
265.211
 30
0
 11
507.19
 21
265.076
 31
0
  0
LINE
  5
B87
330
A02
100
AcDbEntity
  8
Wire007
100
AcDbLine
 10
507.19
 20
265.076
 30
0
 11
506.8
 21
264.979
 31
0
  0
LINE
  5
B88
330
A02
100
AcDbEntity
  8
Wire007
100
AcDbLine
 10
506.8
 20
264.979
 30
0
 11
506.402
 21
264.919
 31
0
  0
LINE
  5
B89
330
A02
100
AcDbEntity
  8
Wire007
100
AcDbLine
 10
506.402
 20
264.919
 30
0
 11
506.002
 21
264.9
 31
0
  0
ENDSEC
  0
SECTION
  2
OBJECTS
  0
DICTIONARY
  5
F000
330
0
100
AcDbDictionary
  3
ACAD_GROUP
350
F001
  0
DICTIONARY
  5
F001
330
F000
100
AcDbDictionary
  0
ENDSEC
  0
EOF