ISO-10303-21;
HEADER;
/* Generated by software containing ST-Developer
 * from STEP Tools, Inc. (www.steptools.com) 
 */

FILE_DESCRIPTION(
/* description */ (''),
/* implementation_level */ '2;1');

FILE_NAME(
/* name */ 'ledBoard v3.step',
/* time_stamp */ '2023-12-28T19:34:19-08:00',
/* author */ (''),
/* organization */ (''),
/* preprocessor_version */ 'ST-DEVELOPER v20',
/* originating_system */ 'Autodesk Translation Framework v12.14.0.127',

/* authorisation */ '');

FILE_SCHEMA (('AUTOMOTIVE_DESIGN { 1 0 10303 214 3 1 1 }'));
ENDSEC;

DATA;
#10=MECHANICAL_DESIGN_GEOMETRIC_PRESENTATION_REPRESENTATION('',(#266,#267,
#268,#269,#270,#271,#272,#273,#274,#275,#276,#277,#278),#483);
#11=SHAPE_REPRESENTATION_RELATIONSHIP('SRR','None',#490,#12);
#12=ADVANCED_BREP_SHAPE_REPRESENTATION('',(#13),#482);
#13=MANIFOLD_SOLID_BREP('Body1',#295);
#14=CYLINDRICAL_SURFACE('',#323,5.);
#15=CYLINDRICAL_SURFACE('',#326,5.);
#16=CIRCLE('',#320,5.);
#17=CIRCLE('',#321,5.);
#18=CIRCLE('',#324,5.);
#19=CIRCLE('',#327,5.);
#20=FACE_BOUND('',#48,.T.);
#21=FACE_BOUND('',#50,.T.);
#22=FACE_OUTER_BOUND('',#38,.T.);
#23=FACE_OUTER_BOUND('',#39,.T.);
#24=FACE_OUTER_BOUND('',#40,.T.);
#25=FACE_OUTER_BOUND('',#41,.T.);
#26=FACE_OUTER_BOUND('',#42,.T.);
#27=FACE_OUTER_BOUND('',#43,.T.);
#28=FACE_OUTER_BOUND('',#44,.T.);
#29=FACE_OUTER_BOUND('',#45,.T.);
#30=FACE_OUTER_BOUND('',#46,.T.);
#31=FACE_OUTER_BOUND('',#47,.T.);
#32=FACE_OUTER_BOUND('',#49,.T.);
#33=FACE_OUTER_BOUND('',#51,.T.);
#34=FACE_OUTER_BOUND('',#52,.T.);
#35=FACE_OUTER_BOUND('',#53,.T.);
#36=FACE_OUTER_BOUND('',#54,.T.);
#37=FACE_OUTER_BOUND('',#55,.T.);
#38=EDGE_LOOP('',(#180,#181,#182,#183));
#39=EDGE_LOOP('',(#184,#185,#186,#187));
#40=EDGE_LOOP('',(#188,#189,#190,#191));
#41=EDGE_LOOP('',(#192,#193,#194,#195));
#42=EDGE_LOOP('',(#196,#197,#198,#199));
#43=EDGE_LOOP('',(#200,#201,#202,#203));
#44=EDGE_LOOP('',(#204,#205,#206,#207));
#45=EDGE_LOOP('',(#208,#209,#210,#211));
#46=EDGE_LOOP('',(#212,#213,#214,#215));
#47=EDGE_LOOP('',(#216,#217,#218,#219));
#48=EDGE_LOOP('',(#220,#221,#222,#223));
#49=EDGE_LOOP('',(#224,#225,#226,#227));
#50=EDGE_LOOP('',(#228,#229,#230,#231));
#51=EDGE_LOOP('',(#232,#233,#234,#235));
#52=EDGE_LOOP('',(#236,#237,#238,#239));
#53=EDGE_LOOP('',(#240,#241,#242,#243));
#54=EDGE_LOOP('',(#244,#245,#246,#247));
#55=EDGE_LOOP('',(#248,#249,#250,#251));
#56=LINE('',#407,#88);
#57=LINE('',#409,#89);
#58=LINE('',#411,#90);
#59=LINE('',#412,#91);
#60=LINE('',#415,#92);
#61=LINE('',#417,#93);
#62=LINE('',#418,#94);
#63=LINE('',#421,#95);
#64=LINE('',#423,#96);
#65=LINE('',#424,#97);
#66=LINE('',#426,#98);
#67=LINE('',#427,#99);
#68=LINE('',#432,#100);
#69=LINE('',#434,#101);
#70=LINE('',#436,#102);
#71=LINE('',#437,#103);
#72=LINE('',#440,#104);
#73=LINE('',#442,#105);
#74=LINE('',#443,#106);
#75=LINE('',#446,#107);
#76=LINE('',#448,#108);
#77=LINE('',#449,#109);
#78=LINE('',#451,#110);
#79=LINE('',#452,#111);
#80=LINE('',#459,#112);
#81=LINE('',#462,#113);
#82=LINE('',#465,#114);
#83=LINE('',#467,#115);
#84=LINE('',#468,#116);
#85=LINE('',#472,#117);
#86=LINE('',#475,#118);
#87=LINE('',#476,#119);
#88=VECTOR('',#333,10.);
#89=VECTOR('',#334,10.);
#90=VECTOR('',#335,10.);
#91=VECTOR('',#336,10.);
#92=VECTOR('',#339,10.);
#93=VECTOR('',#340,10.);
#94=VECTOR('',#341,10.);
#95=VECTOR('',#344,10.);
#96=VECTOR('',#345,10.);
#97=VECTOR('',#346,10.);
#98=VECTOR('',#349,10.);
#99=VECTOR('',#350,10.);
#100=VECTOR('',#355,10.);
#101=VECTOR('',#356,10.);
#102=VECTOR('',#357,10.);
#103=VECTOR('',#358,10.);
#104=VECTOR('',#361,10.);
#105=VECTOR('',#362,10.);
#106=VECTOR('',#363,10.);
#107=VECTOR('',#366,10.);
#108=VECTOR('',#367,10.);
#109=VECTOR('',#368,10.);
#110=VECTOR('',#371,10.);
#111=VECTOR('',#372,10.);
#112=VECTOR('',#379,10.);
#113=VECTOR('',#382,10.);
#114=VECTOR('',#385,10.);
#115=VECTOR('',#386,10.);
#116=VECTOR('',#387,10.);
#117=VECTOR('',#392,10.);
#118=VECTOR('',#395,10.);
#119=VECTOR('',#396,10.);
#120=VERTEX_POINT('',#405);
#121=VERTEX_POINT('',#406);
#122=VERTEX_POINT('',#408);
#123=VERTEX_POINT('',#410);
#124=VERTEX_POINT('',#414);
#125=VERTEX_POINT('',#416);
#126=VERTEX_POINT('',#420);
#127=VERTEX_POINT('',#422);
#128=VERTEX_POINT('',#430);
#129=VERTEX_POINT('',#431);
#130=VERTEX_POINT('',#433);
#131=VERTEX_POINT('',#435);
#132=VERTEX_POINT('',#439);
#133=VERTEX_POINT('',#441);
#134=VERTEX_POINT('',#445);
#135=VERTEX_POINT('',#447);
#136=VERTEX_POINT('',#455);
#137=VERTEX_POINT('',#456);
#138=VERTEX_POINT('',#458);
#139=VERTEX_POINT('',#460);
#140=VERTEX_POINT('',#464);
#141=VERTEX_POINT('',#466);
#142=VERTEX_POINT('',#470);
#143=VERTEX_POINT('',#474);
#144=EDGE_CURVE('',#120,#121,#56,.T.);
#145=EDGE_CURVE('',#120,#122,#57,.T.);
#146=EDGE_CURVE('',#123,#122,#58,.T.);
#147=EDGE_CURVE('',#121,#123,#59,.T.);
#148=EDGE_CURVE('',#124,#120,#60,.T.);
#149=EDGE_CURVE('',#124,#125,#61,.T.);
#150=EDGE_CURVE('',#122,#125,#62,.T.);
#151=EDGE_CURVE('',#121,#126,#63,.T.);
#152=EDGE_CURVE('',#127,#123,#64,.T.);
#153=EDGE_CURVE('',#126,#127,#65,.T.);
#154=EDGE_CURVE('',#126,#124,#66,.T.);
#155=EDGE_CURVE('',#125,#127,#67,.T.);
#156=EDGE_CURVE('',#128,#129,#68,.T.);
#157=EDGE_CURVE('',#128,#130,#69,.T.);
#158=EDGE_CURVE('',#131,#130,#70,.T.);
#159=EDGE_CURVE('',#129,#131,#71,.T.);
#160=EDGE_CURVE('',#129,#132,#72,.T.);
#161=EDGE_CURVE('',#133,#131,#73,.T.);
#162=EDGE_CURVE('',#132,#133,#74,.T.);
#163=EDGE_CURVE('',#132,#134,#75,.T.);
#164=EDGE_CURVE('',#135,#133,#76,.T.);
#165=EDGE_CURVE('',#134,#135,#77,.T.);
#166=EDGE_CURVE('',#134,#128,#78,.T.);
#167=EDGE_CURVE('',#130,#135,#79,.T.);
#168=EDGE_CURVE('',#136,#137,#16,.T.);
#169=EDGE_CURVE('',#137,#138,#80,.T.);
#170=EDGE_CURVE('',#138,#139,#17,.T.);
#171=EDGE_CURVE('',#139,#136,#81,.T.);
#172=EDGE_CURVE('',#137,#140,#82,.T.);
#173=EDGE_CURVE('',#141,#140,#83,.T.);
#174=EDGE_CURVE('',#138,#141,#84,.T.);
#175=EDGE_CURVE('',#142,#141,#18,.T.);
#176=EDGE_CURVE('',#139,#142,#85,.T.);
#177=EDGE_CURVE('',#143,#142,#86,.T.);
#178=EDGE_CURVE('',#136,#143,#87,.T.);
#179=EDGE_CURVE('',#140,#143,#19,.T.);
#180=ORIENTED_EDGE('',*,*,#144,.F.);
#181=ORIENTED_EDGE('',*,*,#145,.T.);
#182=ORIENTED_EDGE('',*,*,#146,.F.);
#183=ORIENTED_EDGE('',*,*,#147,.F.);
#184=ORIENTED_EDGE('',*,*,#148,.F.);
#185=ORIENTED_EDGE('',*,*,#149,.T.);
#186=ORIENTED_EDGE('',*,*,#150,.F.);
#187=ORIENTED_EDGE('',*,*,#145,.F.);
#188=ORIENTED_EDGE('',*,*,#151,.F.);
#189=ORIENTED_EDGE('',*,*,#147,.T.);
#190=ORIENTED_EDGE('',*,*,#152,.F.);
#191=ORIENTED_EDGE('',*,*,#153,.F.);
#192=ORIENTED_EDGE('',*,*,#154,.F.);
#193=ORIENTED_EDGE('',*,*,#153,.T.);
#194=ORIENTED_EDGE('',*,*,#155,.F.);
#195=ORIENTED_EDGE('',*,*,#149,.F.);
#196=ORIENTED_EDGE('',*,*,#150,.T.);
#197=ORIENTED_EDGE('',*,*,#155,.T.);
#198=ORIENTED_EDGE('',*,*,#152,.T.);
#199=ORIENTED_EDGE('',*,*,#146,.T.);
#200=ORIENTED_EDGE('',*,*,#156,.F.);
#201=ORIENTED_EDGE('',*,*,#157,.T.);
#202=ORIENTED_EDGE('',*,*,#158,.F.);
#203=ORIENTED_EDGE('',*,*,#159,.F.);
#204=ORIENTED_EDGE('',*,*,#160,.F.);
#205=ORIENTED_EDGE('',*,*,#159,.T.);
#206=ORIENTED_EDGE('',*,*,#161,.F.);
#207=ORIENTED_EDGE('',*,*,#162,.F.);
#208=ORIENTED_EDGE('',*,*,#163,.F.);
#209=ORIENTED_EDGE('',*,*,#162,.T.);
#210=ORIENTED_EDGE('',*,*,#164,.F.);
#211=ORIENTED_EDGE('',*,*,#165,.F.);
#212=ORIENTED_EDGE('',*,*,#166,.F.);
#213=ORIENTED_EDGE('',*,*,#165,.T.);
#214=ORIENTED_EDGE('',*,*,#167,.F.);
#215=ORIENTED_EDGE('',*,*,#157,.F.);
#216=ORIENTED_EDGE('',*,*,#167,.T.);
#217=ORIENTED_EDGE('',*,*,#164,.T.);
#218=ORIENTED_EDGE('',*,*,#161,.T.);
#219=ORIENTED_EDGE('',*,*,#158,.T.);
#220=ORIENTED_EDGE('',*,*,#148,.T.);
#221=ORIENTED_EDGE('',*,*,#144,.T.);
#222=ORIENTED_EDGE('',*,*,#151,.T.);
#223=ORIENTED_EDGE('',*,*,#154,.T.);
#224=ORIENTED_EDGE('',*,*,#168,.T.);
#225=ORIENTED_EDGE('',*,*,#169,.T.);
#226=ORIENTED_EDGE('',*,*,#170,.T.);
#227=ORIENTED_EDGE('',*,*,#171,.T.);
#228=ORIENTED_EDGE('',*,*,#156,.T.);
#229=ORIENTED_EDGE('',*,*,#160,.T.);
#230=ORIENTED_EDGE('',*,*,#163,.T.);
#231=ORIENTED_EDGE('',*,*,#166,.T.);
#232=ORIENTED_EDGE('',*,*,#169,.F.);
#233=ORIENTED_EDGE('',*,*,#172,.T.);
#234=ORIENTED_EDGE('',*,*,#173,.F.);
#235=ORIENTED_EDGE('',*,*,#174,.F.);
#236=ORIENTED_EDGE('',*,*,#170,.F.);
#237=ORIENTED_EDGE('',*,*,#174,.T.);
#238=ORIENTED_EDGE('',*,*,#175,.F.);
#239=ORIENTED_EDGE('',*,*,#176,.F.);
#240=ORIENTED_EDGE('',*,*,#171,.F.);
#241=ORIENTED_EDGE('',*,*,#176,.T.);
#242=ORIENTED_EDGE('',*,*,#177,.F.);
#243=ORIENTED_EDGE('',*,*,#178,.F.);
#244=ORIENTED_EDGE('',*,*,#168,.F.);
#245=ORIENTED_EDGE('',*,*,#178,.T.);
#246=ORIENTED_EDGE('',*,*,#179,.F.);
#247=ORIENTED_EDGE('',*,*,#172,.F.);
#248=ORIENTED_EDGE('',*,*,#179,.T.);
#249=ORIENTED_EDGE('',*,*,#177,.T.);
#250=ORIENTED_EDGE('',*,*,#175,.T.);
#251=ORIENTED_EDGE('',*,*,#173,.T.);
#252=PLANE('',#309);
#253=PLANE('',#310);
#254=PLANE('',#311);
#255=PLANE('',#312);
#256=PLANE('',#313);
#257=PLANE('',#314);
#258=PLANE('',#315);
#259=PLANE('',#316);
#260=PLANE('',#317);
#261=PLANE('',#318);
#262=PLANE('',#319);
#263=PLANE('',#322);
#264=PLANE('',#325);
#265=PLANE('',#328);
#266=STYLED_ITEM('',(#501),#279);
#267=STYLED_ITEM('',(#501),#280);
#268=STYLED_ITEM('',(#501),#281);
#269=STYLED_ITEM('',(#501),#282);
#270=STYLED_ITEM('',(#501),#283);
#271=STYLED_ITEM('',(#501),#284);
#272=STYLED_ITEM('',(#501),#285);
#273=STYLED_ITEM('',(#501),#286);
#274=STYLED_ITEM('',(#501),#287);
#275=STYLED_ITEM('',(#502),#288);
#276=STYLED_ITEM('',(#503),#289);
#277=STYLED_ITEM('',(#503),#294);
#278=STYLED_ITEM('',(#500),#13);
#279=ADVANCED_FACE('',(#22),#252,.T.);
#280=ADVANCED_FACE('',(#23),#253,.T.);
#281=ADVANCED_FACE('',(#24),#254,.T.);
#282=ADVANCED_FACE('',(#25),#255,.T.);
#283=ADVANCED_FACE('',(#26),#256,.T.);
#284=ADVANCED_FACE('',(#27),#257,.T.);
#285=ADVANCED_FACE('',(#28),#258,.T.);
#286=ADVANCED_FACE('',(#29),#259,.T.);
#287=ADVANCED_FACE('',(#30),#260,.T.);
#288=ADVANCED_FACE('',(#31,#20),#261,.T.);
#289=ADVANCED_FACE('',(#32,#21),#262,.T.);
#290=ADVANCED_FACE('',(#33),#263,.T.);
#291=ADVANCED_FACE('',(#34),#14,.T.);
#292=ADVANCED_FACE('',(#35),#264,.T.);
#293=ADVANCED_FACE('',(#36),#15,.T.);
#294=ADVANCED_FACE('',(#37),#265,.F.);
#295=CLOSED_SHELL('',(#279,#280,#281,#282,#283,#284,#285,#286,#287,#288,
#289,#290,#291,#292,#293,#294));
#296=DERIVED_UNIT_ELEMENT(#298,1.);
#297=DERIVED_UNIT_ELEMENT(#485,-3.);
#298=(
MASS_UNIT()
NAMED_UNIT(*)
SI_UNIT(.KILO.,.GRAM.)
);
#299=DERIVED_UNIT((#296,#297));
#300=MEASURE_REPRESENTATION_ITEM('density measure',
POSITIVE_RATIO_MEASURE(7850.),#299);
#301=PROPERTY_DEFINITION_REPRESENTATION(#306,#303);
#302=PROPERTY_DEFINITION_REPRESENTATION(#307,#304);
#303=REPRESENTATION('material name',(#305),#482);
#304=REPRESENTATION('density',(#300),#482);
#305=DESCRIPTIVE_REPRESENTATION_ITEM('Steel','Steel');
#306=PROPERTY_DEFINITION('material property','material name',#492);
#307=PROPERTY_DEFINITION('material property','density of part',#492);
#308=AXIS2_PLACEMENT_3D('',#403,#329,#330);
#309=AXIS2_PLACEMENT_3D('',#404,#331,#332);
#310=AXIS2_PLACEMENT_3D('',#413,#337,#338);
#311=AXIS2_PLACEMENT_3D('',#419,#342,#343);
#312=AXIS2_PLACEMENT_3D('',#425,#347,#348);
#313=AXIS2_PLACEMENT_3D('',#428,#351,#352);
#314=AXIS2_PLACEMENT_3D('',#429,#353,#354);
#315=AXIS2_PLACEMENT_3D('',#438,#359,#360);
#316=AXIS2_PLACEMENT_3D('',#444,#364,#365);
#317=AXIS2_PLACEMENT_3D('',#450,#369,#370);
#318=AXIS2_PLACEMENT_3D('',#453,#373,#374);
#319=AXIS2_PLACEMENT_3D('',#454,#375,#376);
#320=AXIS2_PLACEMENT_3D('',#457,#377,#378);
#321=AXIS2_PLACEMENT_3D('',#461,#380,#381);
#322=AXIS2_PLACEMENT_3D('',#463,#383,#384);
#323=AXIS2_PLACEMENT_3D('',#469,#388,#389);
#324=AXIS2_PLACEMENT_3D('',#471,#390,#391);
#325=AXIS2_PLACEMENT_3D('',#473,#393,#394);
#326=AXIS2_PLACEMENT_3D('',#477,#397,#398);
#327=AXIS2_PLACEMENT_3D('',#478,#399,#400);
#328=AXIS2_PLACEMENT_3D('',#479,#401,#402);
#329=DIRECTION('axis',(0.,0.,1.));
#330=DIRECTION('refdir',(1.,0.,0.));
#331=DIRECTION('center_axis',(1.,4.62592926927149E-16,0.));
#332=DIRECTION('ref_axis',(-4.62592926927149E-16,1.,0.));
#333=DIRECTION('',(4.62592926927149E-16,-1.,0.));
#334=DIRECTION('',(0.,0.,1.));
#335=DIRECTION('',(-4.62592926927149E-16,1.,0.));
#336=DIRECTION('',(0.,0.,1.));
#337=DIRECTION('center_axis',(5.78241158658936E-17,1.,0.));
#338=DIRECTION('ref_axis',(-1.,5.78241158658936E-17,0.));
#339=DIRECTION('',(1.,-5.78241158658936E-17,0.));
#340=DIRECTION('',(0.,0.,1.));
#341=DIRECTION('',(-1.,5.78241158658936E-17,0.));
#342=DIRECTION('center_axis',(0.,-1.,0.));
#343=DIRECTION('ref_axis',(1.,0.,0.));
#344=DIRECTION('',(-1.,0.,0.));
#345=DIRECTION('',(1.,0.,0.));
#346=DIRECTION('',(0.,0.,1.));
#347=DIRECTION('center_axis',(-1.,4.62592926927149E-16,0.));
#348=DIRECTION('ref_axis',(-4.62592926927149E-16,-1.,0.));
#349=DIRECTION('',(4.62592926927149E-16,1.,0.));
#350=DIRECTION('',(-4.62592926927149E-16,-1.,0.));
#351=DIRECTION('center_axis',(0.,0.,1.));
#352=DIRECTION('ref_axis',(1.,0.,0.));
#353=DIRECTION('center_axis',(1.,0.,0.));
#354=DIRECTION('ref_axis',(0.,1.,0.));
#355=DIRECTION('',(0.,-1.,0.));
#356=DIRECTION('',(0.,0.,1.));
#357=DIRECTION('',(0.,1.,0.));
#358=DIRECTION('',(0.,0.,1.));
#359=DIRECTION('center_axis',(0.,-1.,0.));
#360=DIRECTION('ref_axis',(1.,0.,0.));
#361=DIRECTION('',(-1.,0.,0.));
#362=DIRECTION('',(1.,0.,0.));
#363=DIRECTION('',(0.,0.,1.));
#364=DIRECTION('center_axis',(-1.,1.38777878078145E-16,0.));
#365=DIRECTION('ref_axis',(-1.38777878078145E-16,-1.,0.));
#366=DIRECTION('',(1.38777878078145E-16,1.,0.));
#367=DIRECTION('',(-1.38777878078145E-16,-1.,0.));
#368=DIRECTION('',(0.,0.,1.));
#369=DIRECTION('center_axis',(0.,1.,0.));
#370=DIRECTION('ref_axis',(-1.,0.,0.));
#371=DIRECTION('',(1.,0.,0.));
#372=DIRECTION('',(-1.,0.,0.));
#373=DIRECTION('center_axis',(0.,0.,1.));
#374=DIRECTION('ref_axis',(1.,0.,0.));
#375=DIRECTION('center_axis',(0.,0.,1.));
#376=DIRECTION('ref_axis',(1.,0.,0.));
#377=DIRECTION('center_axis',(0.,0.,1.));
#378=DIRECTION('ref_axis',(-1.,0.,0.));
#379=DIRECTION('',(0.,1.,0.));
#380=DIRECTION('center_axis',(0.,0.,1.));
#381=DIRECTION('ref_axis',(1.,0.,0.));
#382=DIRECTION('',(0.,-1.,0.));
#383=DIRECTION('center_axis',(1.,0.,0.));
#384=DIRECTION('ref_axis',(0.,-1.,0.));
#385=DIRECTION('',(0.,0.,-1.));
#386=DIRECTION('',(0.,-1.,0.));
#387=DIRECTION('',(0.,0.,-1.));
#388=DIRECTION('center_axis',(0.,0.,-1.));
#389=DIRECTION('ref_axis',(1.,0.,0.));
#390=DIRECTION('center_axis',(0.,0.,-1.));
#391=DIRECTION('ref_axis',(1.,0.,0.));
#392=DIRECTION('',(0.,0.,-1.));
#393=DIRECTION('center_axis',(-1.,0.,0.));
#394=DIRECTION('ref_axis',(0.,1.,0.));
#395=DIRECTION('',(0.,1.,0.));
#396=DIRECTION('',(0.,0.,-1.));
#397=DIRECTION('center_axis',(0.,0.,-1.));
#398=DIRECTION('ref_axis',(-1.,0.,0.));
#399=DIRECTION('center_axis',(0.,0.,-1.));
#400=DIRECTION('ref_axis',(-1.,0.,0.));
#401=DIRECTION('center_axis',(0.,0.,1.));
#402=DIRECTION('ref_axis',(1.,0.,0.));
#403=CARTESIAN_POINT('',(0.,0.,0.));
#404=CARTESIAN_POINT('Origin',(2.28000000000009,-0.299999999999959,0.));
#405=CARTESIAN_POINT('',(2.28000000000009,0.300000000000041,0.69));
#406=CARTESIAN_POINT('',(2.28000000000009,-0.299999999999959,0.69));
#407=CARTESIAN_POINT('',(2.28000000000009,0.300000000000041,0.69));
#408=CARTESIAN_POINT('',(2.28000000000009,0.300000000000041,0.84));
#409=CARTESIAN_POINT('',(2.28000000000009,0.300000000000041,0.));
#410=CARTESIAN_POINT('',(2.28000000000009,-0.299999999999959,0.84));
#411=CARTESIAN_POINT('',(2.28000000000009,0.300000000000041,0.84));
#412=CARTESIAN_POINT('',(2.28000000000009,-0.299999999999959,0.));
#413=CARTESIAN_POINT('Origin',(2.28000000000009,0.300000000000041,0.));
#414=CARTESIAN_POINT('',(1.68000000000009,0.300000000000041,0.69));
#415=CARTESIAN_POINT('',(1.68000000000009,0.300000000000041,0.69));
#416=CARTESIAN_POINT('',(1.68000000000009,0.300000000000041,0.84));
#417=CARTESIAN_POINT('',(1.68000000000009,0.300000000000041,0.));
#418=CARTESIAN_POINT('',(1.68000000000009,0.300000000000041,0.84));
#419=CARTESIAN_POINT('Origin',(1.68000000000009,-0.299999999999959,0.));
#420=CARTESIAN_POINT('',(1.68000000000009,-0.299999999999959,0.69));
#421=CARTESIAN_POINT('',(2.28000000000009,-0.299999999999959,0.69));
#422=CARTESIAN_POINT('',(1.68000000000009,-0.299999999999959,0.84));
#423=CARTESIAN_POINT('',(2.28000000000009,-0.299999999999959,0.84));
#424=CARTESIAN_POINT('',(1.68000000000009,-0.299999999999959,0.));
#425=CARTESIAN_POINT('Origin',(1.68000000000009,0.300000000000041,0.));
#426=CARTESIAN_POINT('',(1.68000000000009,-0.299999999999959,0.69));
#427=CARTESIAN_POINT('',(1.68000000000009,-0.299999999999959,0.84));
#428=CARTESIAN_POINT('Origin',(1.98000000000009,4.11476408501699E-14,0.84));
#429=CARTESIAN_POINT('Origin',(2.32,-2.,0.));
#430=CARTESIAN_POINT('',(2.32,2.,0.));
#431=CARTESIAN_POINT('',(2.32,-2.,0.));
#432=CARTESIAN_POINT('',(2.32,-1.,0.));
#433=CARTESIAN_POINT('',(2.32,2.,0.69));
#434=CARTESIAN_POINT('',(2.32,2.,0.));
#435=CARTESIAN_POINT('',(2.32,-2.,0.69));
#436=CARTESIAN_POINT('',(2.32,2.,0.69));
#437=CARTESIAN_POINT('',(2.32,-2.,0.));
#438=CARTESIAN_POINT('Origin',(-1.88,-2.,0.));
#439=CARTESIAN_POINT('',(-1.88,-2.,0.));
#440=CARTESIAN_POINT('',(-0.94,-2.,0.));
#441=CARTESIAN_POINT('',(-1.88,-2.,0.69));
#442=CARTESIAN_POINT('',(2.32,-2.,0.69));
#443=CARTESIAN_POINT('',(-1.88,-2.,0.));
#444=CARTESIAN_POINT('Origin',(-1.88,2.,0.));
#445=CARTESIAN_POINT('',(-1.88,2.,0.));
#446=CARTESIAN_POINT('',(-1.88,1.,0.));
#447=CARTESIAN_POINT('',(-1.88,2.,0.69));
#448=CARTESIAN_POINT('',(-1.88,-2.,0.69));
#449=CARTESIAN_POINT('',(-1.88,2.,0.));
#450=CARTESIAN_POINT('Origin',(2.32,2.,0.));
#451=CARTESIAN_POINT('',(1.16,2.,0.));
#452=CARTESIAN_POINT('',(-1.88,2.,0.69));
#453=CARTESIAN_POINT('Origin',(0.22,-2.77555756156289E-16,0.69));
#454=CARTESIAN_POINT('Origin',(0.,0.,0.));
#455=CARTESIAN_POINT('',(-5.,-5.,0.));
#456=CARTESIAN_POINT('',(5.,-5.,0.));
#457=CARTESIAN_POINT('Origin',(0.,-5.,0.));
#458=CARTESIAN_POINT('',(5.,5.,0.));
#459=CARTESIAN_POINT('',(5.,-5.,0.));
#460=CARTESIAN_POINT('',(-5.,5.,0.));
#461=CARTESIAN_POINT('Origin',(0.,5.,0.));
#462=CARTESIAN_POINT('',(-5.,5.,0.));
#463=CARTESIAN_POINT('Origin',(5.,5.,0.));
#464=CARTESIAN_POINT('',(5.,-5.,-1.));
#465=CARTESIAN_POINT('',(5.,-5.,0.));
#466=CARTESIAN_POINT('',(5.,5.,-1.));
#467=CARTESIAN_POINT('',(5.,-5.,-1.));
#468=CARTESIAN_POINT('',(5.,5.,0.));
#469=CARTESIAN_POINT('Origin',(0.,5.,0.));
#470=CARTESIAN_POINT('',(-5.,5.,-1.));
#471=CARTESIAN_POINT('Origin',(0.,5.,-1.));
#472=CARTESIAN_POINT('',(-5.,5.,0.));
#473=CARTESIAN_POINT('Origin',(-5.,-5.,0.));
#474=CARTESIAN_POINT('',(-5.,-5.,-1.));
#475=CARTESIAN_POINT('',(-5.,5.,-1.));
#476=CARTESIAN_POINT('',(-5.,-5.,0.));
#477=CARTESIAN_POINT('Origin',(0.,-5.,0.));
#478=CARTESIAN_POINT('Origin',(0.,-5.,-1.));
#479=CARTESIAN_POINT('Origin',(0.,0.,-1.));
#480=UNCERTAINTY_MEASURE_WITH_UNIT(LENGTH_MEASURE(0.01),#484,
'DISTANCE_ACCURACY_VALUE',
'Maximum model space distance between geometric entities at asserted c
onnectivities');
#481=UNCERTAINTY_MEASURE_WITH_UNIT(LENGTH_MEASURE(0.01),#484,
'DISTANCE_ACCURACY_VALUE',
'Maximum model space distance between geometric entities at asserted c
onnectivities');
#482=(
GEOMETRIC_REPRESENTATION_CONTEXT(3)
GLOBAL_UNCERTAINTY_ASSIGNED_CONTEXT((#480))
GLOBAL_UNIT_ASSIGNED_CONTEXT((#484,#486,#487))
REPRESENTATION_CONTEXT('','3D')
);
#483=(
GEOMETRIC_REPRESENTATION_CONTEXT(3)
GLOBAL_UNCERTAINTY_ASSIGNED_CONTEXT((#481))
GLOBAL_UNIT_ASSIGNED_CONTEXT((#484,#486,#487))
REPRESENTATION_CONTEXT('','3D')
);
#484=(
LENGTH_UNIT()
NAMED_UNIT(*)
SI_UNIT(.MILLI.,.METRE.)
);
#485=(
LENGTH_UNIT()
NAMED_UNIT(*)
SI_UNIT($,.METRE.)
);
#486=(
NAMED_UNIT(*)
PLANE_ANGLE_UNIT()
SI_UNIT($,.RADIAN.)
);
#487=(
NAMED_UNIT(*)
SI_UNIT($,.STERADIAN.)
SOLID_ANGLE_UNIT()
);
#488=SHAPE_DEFINITION_REPRESENTATION(#489,#490);
#489=PRODUCT_DEFINITION_SHAPE('',$,#492);
#490=SHAPE_REPRESENTATION('',(#308),#482);
#491=PRODUCT_DEFINITION_CONTEXT('part definition',#496,'design');
#492=PRODUCT_DEFINITION('ledBoard','ledBoard v3',#493,#491);
#493=PRODUCT_DEFINITION_FORMATION('',$,#498);
#494=PRODUCT_RELATED_PRODUCT_CATEGORY('ledBoard v3','ledBoard v3',(#498));
#495=APPLICATION_PROTOCOL_DEFINITION('international standard',
'automotive_design',2009,#496);
#496=APPLICATION_CONTEXT(
'Core Data for Automotive Mechanical Design Process');
#497=PRODUCT_CONTEXT('part definition',#496,'mechanical');
#498=PRODUCT('ledBoard','ledBoard v3',$,(#497));
#499=PRESENTATION_STYLE_ASSIGNMENT((#504));
#500=PRESENTATION_STYLE_ASSIGNMENT((#505));
#501=PRESENTATION_STYLE_ASSIGNMENT((#506));
#502=PRESENTATION_STYLE_ASSIGNMENT((#507));
#503=PRESENTATION_STYLE_ASSIGNMENT((#508));
#504=SURFACE_STYLE_USAGE(.BOTH.,#509);
#505=SURFACE_STYLE_USAGE(.BOTH.,#510);
#506=SURFACE_STYLE_USAGE(.BOTH.,#511);
#507=SURFACE_STYLE_USAGE(.BOTH.,#512);
#508=SURFACE_STYLE_USAGE(.BOTH.,#513);
#509=SURFACE_SIDE_STYLE('',(#514));
#510=SURFACE_SIDE_STYLE('',(#515));
#511=SURFACE_SIDE_STYLE('',(#516));
#512=SURFACE_SIDE_STYLE('',(#517));
#513=SURFACE_SIDE_STYLE('',(#518));
#514=SURFACE_STYLE_FILL_AREA(#519);
#515=SURFACE_STYLE_FILL_AREA(#520);
#516=SURFACE_STYLE_FILL_AREA(#521);
#517=SURFACE_STYLE_FILL_AREA(#522);
#518=SURFACE_STYLE_FILL_AREA(#523);
#519=FILL_AREA_STYLE('Steel - Satin',(#524));
#520=FILL_AREA_STYLE('Aluminum - Satin',(#525));
#521=FILL_AREA_STYLE('ABS (White)',(#526));
#522=FILL_AREA_STYLE('Plastic - Translucent Glossy (Yellow)',(#527));
#523=FILL_AREA_STYLE('Powder Coat (Black)',(#528));
#524=FILL_AREA_STYLE_COLOUR('Steel - Satin',#529);
#525=FILL_AREA_STYLE_COLOUR('Aluminum - Satin',#530);
#526=FILL_AREA_STYLE_COLOUR('ABS (White)',#531);
#527=FILL_AREA_STYLE_COLOUR('Plastic - Translucent Glossy (Yellow)',#532);
#528=FILL_AREA_STYLE_COLOUR('Powder Coat (Black)',#533);
#529=COLOUR_RGB('Steel - Satin',0.627450980392157,0.627450980392157,0.627450980392157);
#530=COLOUR_RGB('Aluminum - Satin',0.96078431372549,0.96078431372549,0.964705882352941);
#531=COLOUR_RGB('ABS (White)',0.964705882352941,0.964705882352941,0.952941176470588);
#532=COLOUR_RGB('Plastic - Translucent Glossy (Yellow)',0.909803921568627,
0.67843137254902,0.137254901960784);
#533=COLOUR_RGB('Powder Coat (Black)',0.0980392156862745,0.0980392156862745,
0.0980392156862745);
ENDSEC;
END-ISO-10303-21;
