999
FreeCAD v0.21 33771 (Git)
  0
SECTION
  2
HEADER
  9
$ACADVER
  1
AC1014
  9
$ACADMAINTVER
 70
     9
  9
$DWGCODEPAGE
  3
ANSI_1252
  9
$TEXTSTYLE
  7
STANDARD
  9
$DIMSTYLE
  2
STANDARD
  9
$DIMTXSTY
  7
STANDARD
  9
$CMLSTYLE
  2
STANDARD
  9
$LUNITS
 70
2
  9
$INSUNITS
 70
4
  9
$PEXTMAX
 10
50
 20
50
 30
50
  9
$PEXTMIN
 10
0
 20
0
 30
0
  9
$HANDSEED
  5
FFFF
  0
ENDSEC
  0
SECTION
  2
CLASSES
  0
CLASS
  1
ACDBDICTIONARYWDFLT
  2
AcDbDictionaryWithDefault
  3
ObjectDBX Classes
 90
        0
280
     0
281
     0
  0
CLASS
  1
XRECORD
  2
AcDbXrecord
  3
ObjectDBX Classes
 90
        0
280
     0
281
     0
  0
CLASS
  1
LWPOLYLINE
  2
AcDbPolyline
  3
ObjectDBX Classes
 90
        0
280
     0
281
     1
  0
ENDSEC
  0
SECTION
  2
TABLES
  0
TABLE
  2
VPORT
  5
20
330
0
100
AcDbSymbolTable
 70
     1
  0
VPORT
  5
21
330
20
100
AcDbSymbolTableRecord
100
AcDbViewportTableRecord
  2
*ACTIVE
 70
     0
  0
ENDTAB
  0
TABLE
  2
LTYPE
  5
22
330
0
100
AcDbSymbolTable
 70
     1
  0
LTYPE
  5
23
330
21
100
AcDbSymbolTableRecord
100
AcDbLinetypeTableRecord
  2
BYBLOCK
 70
     0
  3

 72
    65
 73
     0
 40
0.0
  0
LTYPE
  5
24
330
21
100
AcDbSymbolTableRecord
100
AcDbLinetypeTableRecord
  2
BYLAYER
 70
     0
  3

 72
    65
 73
     0
 40
0.0
  0
LTYPE
  5
25
330
21
100
AcDbSymbolTableRecord
100
AcDbLinetypeTableRecord
  2
CONTINUOUS
 70
     0
  3
Solid line
 72
    65
 73
     0
 40
0.0
  0
ENDTAB
  0
TABLE
  2
LAYER
  5
A86
330
0
100
AcDbSymbolTable
 70
3
  0
LAYER
  5
A87
330
A86
100
AcDbSymbolTableRecord
100
AcDbLayerTableRecord
  2
0
 70
   0
 62
   7
  6
CONTINUOUS
  0
LAYER
  5
A88
330
A86
100
AcDbSymbolTableRecord
100
AcDbLayerTableRecord
  2
none
 70
    0
 62
    7
  6
CONTINUOUS
  0
LAYER
  5
A89
330
A86
100
AcDbSymbolTableRecord
100
AcDbLayerTableRecord
  2
Wire
 70
    0
 62
    7
  6
CONTINUOUS
  0
ENDTAB
  0
TABLE
  2
STYLE
  5
70
330
0
100
AcDbSymbolTable
 70
     2
  0
STYLE
  5
71
330
70
100
AcDbSymbolTableRecord
100
AcDbTextStyleTableRecord
  2
STANDARD
 70
     0
 40
0.0
 41
1.0
 50
0.0
 71
     0
 42
2.5
  3
arial.ttf
  4

  0
STYLE
  5
72
330
70
100
AcDbSymbolTableRecord
100
AcDbTextStyleTableRecord
  2
ANNOTATIVE
 70
     0
 40
0.0
 41
1.0
 50
0.0
 71
     0
 42
2.5
  3
arial.ttf
  4

  0
ENDTAB
  0
TABLE
  2
VIEW
  5
73
330
0
100
AcDbSymbolTable
 70
     0
  0
ENDTAB
  0
TABLE
  2
UCS
  5
74
330
0
100
AcDbSymbolTable
 70
     0
  0
ENDTAB
  0
TABLE
  2
APPID
  5
75
330
0
100
AcDbSymbolTable
 70
     2
  0
APPID
  5
76
330
75
100
AcDbSymbolTableRecord
100
AcDbRegAppTableRecord
  2
ACAD
 70
     0
  0
APPID
  5
77
330
75
100
AcDbSymbolTableRecord
100
AcDbRegAppTableRecord
  2
ACADANNOTATIVE
 70
     0
  0
ENDTAB
  0
TABLE
  2
DIMSTYLE
  5
78
330
0
100
AcDbSymbolTable
 70
     2
  0
DIMSTYLE
105
79
330
78
100
AcDbSymbolTableRecord
100
AcDbDimStyleTableRecord
  2
STANDARD
 70
     0
  3

  4

  5

  6

  7

 40
0.0
 41
2.5
 42
0.625
 43
3.75
 44
1.25
 45
0.0
 46
0.0
 47
0.0
 48
0.0
140
2.5
141
2.5
142
0.0
143
0.03937007874016
144
1.0
145
0.0
146
1.0
147
0.625
 71
     0
 72
     0
 73
     0
 74
     0
 75
     0
 76
     0
 77
     1
 78
     8
170
     0
171
     3
172
     1
173
     0
174
     0
175
     0
176
     0
177
     0
178
     0
270
     2
271
     2
272
     2
273
     2
274
     3
340
71
275
     0
280
     0
281
     0
282
     0
283
     0
284
     8
285
     0
286
     0
287
     3
288
     0
  0
ENDTAB
  0
TABLE
  2
BLOCK_RECORD
  5
A01
330
0
100
AcDbSymbolTable
  70
5
  0
BLOCK_RECORD
  5
A02
330
A01
100
AcDbSymbolTableRecord
100
AcDbBlockTableRecord
  2
*MODEL_SPACE
  0
BLOCK_RECORD
  5
A03
330
A01
100
AcDbSymbolTableRecord
100
AcDbBlockTableRecord
  2
*PAPER_SPACE
  0
ENDTAB
  0
ENDSEC
  0
SECTION
  2
BLOCKS
  0
BLOCK
  5
A04
330
A02
100
AcDbEntity
  8
0
100
AcDbBlockBegin
  2
*MODEL_SPACE
 70
   0
 10
0
 20
0
 30
0
  3
*MODEL_SPACE
  1
 
  0
ENDBLK
  5
A05
330
A02
100
AcDbEntity
  8
0
100
AcDbBlockEnd
  0
BLOCK
  5
A06
330
A03
100
AcDbEntity
 67
1
  8
0
100
AcDbBlockBegin
  2
*PAPER_SPACE
 70
   0
 10
0
 20
0
 30
0
  3
*PAPER_SPACE
  1
 
  0
ENDBLK
  5
A07
330
A03
100
AcDbEntity
 67
    1
  8
0
100
AcDbBlockEnd
  0
ENDSEC
  0
SECTION
  2
ENTITIES
  0
SPLINE
  5
A08
330
A02
100
AcDbEntity
  8
Wire
100
AcDbSpline
210
0
220
0
230
1
 70
8
 71
3
 72
8
 73
4
 74
0
 40
0
 40
0
 40
0
 40
0
 40
1
 40
1
 40
1
 40
1
 10
51.4586
 20
112.981
 30
0
 10
45.7535
 20
112.981
 30
0
 10
36.7146
 20
112.867
 30
0
 10
31.4586
 20
112.995
 30
0
  0
SPLINE
  5
A09
330
A02
100
AcDbEntity
  8
Wire
100
AcDbSpline
210
0
220
0
230
1
 70
8
 71
3
 72
8
 73
4
 74
0
 40
0
 40
0
 40
0
 40
0
 40
1
 40
1
 40
1
 40
1
 10
31.4586
 20
112.995
 30
0
 10
28.2177
 20
113.075
 30
0
 10
21.1451
 20
112.973
 30
0
 10
18.687
 20
116.299
 30
0
  0
SPLINE
  5
A0A
330
A02
100
AcDbEntity
  8
Wire
100
AcDbSpline
210
0
220
0
230
1
 70
8
 71
3
 72
8
 73
4
 74
0
 40
0
 40
0
 40
0
 40
0
 40
1
 40
1
 40
1
 40
1
 10
18.687
 20
116.299
 30
0
 10
17.4053
 20
118.032
 30
0
 10
16.9265
 20
119.697
 30
0
 10
16.7086
 20
121.981
 30
0
  0
SPLINE
  5
A0B
330
A02
100
AcDbEntity
  8
Wire
100
AcDbSpline
210
0
220
0
230
1
 70
8
 71
3
 72
8
 73
4
 74
0
 40
0
 40
0
 40
0
 40
0
 40
1
 40
1
 40
1
 40
1
 10
16.7086
 20
121.981
 30
0
 10
16.415
 20
125.057
 30
0
 10
17.7043
 20
128.42
 30
0
 10
19.4516
 20
130.977
 30
0
  0
SPLINE
  5
A0C
330
A02
100
AcDbEntity
  8
Wire
100
AcDbSpline
210
0
220
0
230
1
 70
8
 71
3
 72
8
 73
4
 74
0
 40
0
 40
0
 40
0
 40
0
 40
1
 40
1
 40
1
 40
1
 10
19.4516
 20
130.977
 30
0
 10
24.2161
 20
137.948
 30
0
 10
33.9912
 20
143.448
 30
0
 10
41.4586
 20
146.644
 30
0
  0
SPLINE
  5
A0D
330
A02
100
AcDbEntity
  8
Wire
100
AcDbSpline
210
0
220
0
230
1
 70
8
 71
3
 72
8
 73
4
 74
0
 40
0
 40
0
 40
0
 40
0
 40
1
 40
1
 40
1
 40
1
 10
41.4586
 20
146.644
 30
0
 10
45.5776
 20
148.406
 30
0
 10
51.8034
 20
150.317
 30
0
 10
56.4586
 20
151.312
 30
0
  0
SPLINE
  5
A0E
330
A02
100
AcDbEntity
  8
Wire
100
AcDbSpline
210
0
220
0
230
1
 70
8
 71
3
 72
8
 73
4
 74
0
 40
0
 40
0
 40
0
 40
0
 40
1
 40
1
 40
1
 40
1
 10
56.4586
 20
151.312
 30
0
 10
61.1782
 20
152.32
 30
0
 10
71.8602
 20
152.376
 30
0
 10
73.1407
 20
157.039
 30
0
  0
SPLINE
  5
A0F
330
A02
100
AcDbEntity
  8
Wire
100
AcDbSpline
210
0
220
0
230
1
 70
8
 71
3
 72
8
 73
4
 74
0
 40
0
 40
0
 40
0
 40
0
 40
1
 40
1
 40
1
 40
1
 10
73.1407
 20
157.039
 30
0
 10
74.0348
 20
160.296
 30
0
 10
73.4589
 20
162.564
 30
0
 10
73.4586
 20
166.981
 30
0
  0
SPLINE
  5
A10
330
A02
100
AcDbEntity
  8
Wire
100
AcDbSpline
210
0
220
0
230
1
 70
8
 71
3
 72
8
 73
4
 74
0
 40
0
 40
0
 40
0
 40
0
 40
1
 40
1
 40
1
 40
1
 10
73.4586
 20
166.981
 30
0
 10
73.4584
 20
170.42
 30
0
 10
74.3913
 20
173.703
 30
0
 10
72.4308
 20
176.468
 30
0
  0
SPLINE
  5
A11
330
A02
100
AcDbEntity
  8
Wire
100
AcDbSpline
210
0
220
0
230
1
 70
8
 71
3
 72
8
 73
4
 74
0
 40
0
 40
0
 40
0
 40
0
 40
1
 40
1
 40
1
 40
1
 10
72.4308
 20
176.468
 30
0
 10
69.8231
 20
180.145
 30
0
 10
56.3884
 20
183.071
 30
0
 10
53.0589
 20
186.731
 30
0
  0
SPLINE
  5
A12
330
A02
100
AcDbEntity
  8
Wire
100
AcDbSpline
210
0
220
0
230
1
 70
8
 71
3
 72
8
 73
4
 74
0
 40
0
 40
0
 40
0
 40
0
 40
1
 40
1
 40
1
 40
1
 10
53.0589
 20
186.731
 30
0
 10
51.3808
 20
188.575
 30
0
 10
51.2568
 20
190.732
 30
0
 10
51.356
 20
192.982
 30
0
  0
SPLINE
  5
A13
330
A02
100
AcDbEntity
  8
Wire
100
AcDbSpline
210
0
220
0
230
1
 70
8
 71
3
 72
8
 73
4
 74
0
 40
0
 40
0
 40
0
 40
0
 40
1
 40
1
 40
1
 40
1
 10
51.356
 20
192.982
 30
0
 10
51.4839
 20
195.883
 30
0
 10
52.6767
 20
198.654
 30
0
 10
54.6862
 20
200.796
 30
0
  0
SPLINE
  5
A14
330
A02
100
AcDbEntity
  8
Wire
100
AcDbSpline
210
0
220
0
230
1
 70
8
 71
3
 72
8
 73
4
 74
0
 40
0
 40
0
 40
0
 40
0
 40
1
 40
1
 40
1
 40
1
 10
54.6862
 20
200.796
 30
0
 10
63.4962
 20
210.186
 30
0
 10
81.7017
 20
214.062
 30
0
 10
93.4586
 20
217.981
 30
0
  0
SPLINE
  5
A15
330
A02
100
AcDbEntity
  8
Wire
100
AcDbSpline
210
0
220
0
230
1
 70
8
 71
3
 72
8
 73
4
 74
0
 40
0
 40
0
 40
0
 40
0
 40
1
 40
1
 40
1
 40
1
 10
93.4586
 20
217.981
 30
0
 10
109.914
 20
223.466
 30
0
 10
127.106
 20
227.339
 30
0
 10
143.459
 20
232.756
 30
0
  0
SPLINE
  5
A16
330
A02
100
AcDbEntity
  8
Wire
100
AcDbSpline
210
0
220
0
230
1
 70
8
 71
3
 72
8
 73
4
 74
0
 40
0
 40
0
 40
0
 40
0
 40
1
 40
1
 40
1
 40
1
 10
143.459
 20
232.756
 30
0
 10
161.611
 20
238.77
 30
0
 10
184.715
 20
240.215
 30
0
 10
203.459
 20
242.056
 30
0
  0
SPLINE
  5
A17
330
A02
100
AcDbEntity
  8
Wire
100
AcDbSpline
210
0
220
0
230
1
 70
8
 71
3
 72
8
 73
4
 74
0
 40
0
 40
0
 40
0
 40
0
 40
1
 40
1
 40
1
 40
1
 10
203.459
 20
242.056
 30
0
 10
206.64
 20
242.369
 30
0
 10
209.666
 20
242.969
 30
0
 10
212.459
 20
244.694
 30
0
  0
SPLINE
  5
A18
330
A02
100
AcDbEntity
  8
Wire
100
AcDbSpline
210
0
220
0
230
1
 70
8
 71
3
 72
8
 73
4
 74
0
 40
0
 40
0
 40
0
 40
0
 40
1
 40
1
 40
1
 40
1
 10
212.459
 20
244.694
 30
0
 10
218.237
 20
248.263
 30
0
 10
223.467
 20
253.635
 30
0
 10
229.459
 20
257.105
 30
0
  0
SPLINE
  5
A19
330
A02
100
AcDbEntity
  8
Wire
100
AcDbSpline
210
0
220
0
230
1
 70
8
 71
3
 72
8
 73
4
 74
0
 40
0
 40
0
 40
0
 40
0
 40
1
 40
1
 40
1
 40
1
 10
229.459
 20
257.105
 30
0
 10
236.579
 20
261.229
 30
0
 10
248.838
 20
265.352
 30
0
 10
256.459
 20
266.542
 30
0
  0
SPLINE
  5
A1A
330
A02
100
AcDbEntity
  8
Wire
100
AcDbSpline
210
0
220
0
230
1
 70
8
 71
3
 72
8
 73
4
 74
0
 40
0
 40
0
 40
0
 40
0
 40
1
 40
1
 40
1
 40
1
 10
256.459
 20
266.542
 30
0
 10
259.847
 20
267.071
 30
0
 10
261.756
 20
266.979
 30
0
 10
265.459
 20
266.981
 30
0
  0
SPLINE
  5
A1B
330
A02
100
AcDbEntity
  8
Wire
100
AcDbSpline
210
0
220
0
230
1
 70
8
 71
3
 72
8
 73
4
 74
0
 40
0
 40
0
 40
0
 40
0
 40
1
 40
1
 40
1
 40
1
 10
265.459
 20
266.981
 30
0
 10
276.735
 20
266.985
 30
0
 10
282.839
 20
267.422
 30
0
 10
293.459
 20
264.556
 30
0
  0
SPLINE
  5
A1C
330
A02
100
AcDbEntity
  8
Wire
100
AcDbSpline
210
0
220
0
230
1
 70
8
 71
3
 72
8
 73
4
 74
0
 40
0
 40
0
 40
0
 40
0
 40
1
 40
1
 40
1
 40
1
 10
293.459
 20
264.556
 30
0
 10
296.038
 20
263.86
 30
0
 10
297.908
 20
263.207
 30
0
 10
300.459
 20
263.114
 30
0
  0
SPLINE
  5
A1D
330
A02
100
AcDbEntity
  8
Wire
100
AcDbSpline
210
0
220
0
230
1
 70
8
 71
3
 72
8
 73
4
 74
0
 40
0
 40
0
 40
0
 40
0
 40
1
 40
1
 40
1
 40
1
 10
300.459
 20
263.114
 30
0
 10
302.668
 20
263.033
 30
0
 10
304.282
 20
263.439
 30
0
 10
306.459
 20
263.695
 30
0
  0
SPLINE
  5
A1E
330
A02
100
AcDbEntity
  8
Wire
100
AcDbSpline
210
0
220
0
230
1
 70
8
 71
3
 72
8
 73
4
 74
0
 40
0
 40
0
 40
0
 40
0
 40
1
 40
1
 40
1
 40
1
 10
306.459
 20
263.695
 30
0
 10
309.184
 20
264.016
 30
0
 10
310.588
 20
263.963
 30
0
 10
313.459
 20
263.982
 30
0
  0
SPLINE
  5
A1F
330
A02
100
AcDbEntity
  8
Wire
100
AcDbSpline
210
0
220
0
230
1
 70
8
 71
3
 72
8
 73
4
 74
0
 40
0
 40
0
 40
0
 40
0
 40
1
 40
1
 40
1
 40
1
 10
313.459
 20
263.982
 30
0
 10
317.219
 20
264.006
 30
0
 10
318.895
 20
264.275
 30
0
 10
322.459
 20
264.695
 30
0
  0
SPLINE
  5
A20
330
A02
100
AcDbEntity
  8
Wire
100
AcDbSpline
210
0
220
0
230
1
 70
8
 71
3
 72
8
 73
4
 74
0
 40
0
 40
0
 40
0
 40
0
 40
1
 40
1
 40
1
 40
1
 10
322.459
 20
264.695
 30
0
 10
326.199
 20
265.137
 30
0
 10
328.119
 20
264.981
 30
0
 10
332.459
 20
264.981
 30
0
  0
SPLINE
  5
A21
330
A02
100
AcDbEntity
  8
Wire
100
AcDbSpline
210
0
220
0
230
1
 70
8
 71
3
 72
8
 73
4
 74
0
 40
0
 40
0
 40
0
 40
0
 40
1
 40
1
 40
1
 40
1
 10
332.459
 20
264.981
 30
0
 10
340.189
 20
264.981
 30
0
 10
344.008
 20
265.456
 30
0
 10
350.459
 20
264.695
 30
0
  0
SPLINE
  5
A22
330
A02
100
AcDbEntity
  8
Wire
100
AcDbSpline
210
0
220
0
230
1
 70
8
 71
3
 72
8
 73
4
 74
0
 40
0
 40
0
 40
0
 40
0
 40
1
 40
1
 40
1
 40
1
 10
350.459
 20
264.695
 30
0
 10
353.674
 20
264.316
 30
0
 10
356.175
 20
263.997
 30
0
 10
359.459
 20
263.982
 30
0
  0
SPLINE
  5
A23
330
A02
100
AcDbEntity
  8
Wire
100
AcDbSpline
210
0
220
0
230
1
 70
8
 71
3
 72
8
 73
4
 74
0
 40
0
 40
0
 40
0
 40
0
 40
1
 40
1
 40
1
 40
1
 10
359.459
 20
263.982
 30
0
 10
364.619
 20
263.957
 30
0
 10
366.189
 20
264.199
 30
0
 10
370.459
 20
263.695
 30
0
  0
SPLINE
  5
A24
330
A02
100
AcDbEntity
  8
Wire
100
AcDbSpline
210
0
220
0
230
1
 70
8
 71
3
 72
8
 73
4
 74
0
 40
0
 40
0
 40
0
 40
0
 40
1
 40
1
 40
1
 40
1
 10
370.459
 20
263.695
 30
0
 10
373.227
 20
263.369
 30
0
 10
374.679
 20
263.064
 30
0
 10
377.459
 20
262.995
 30
0
  0
SPLINE
  5
A25
330
A02
100
AcDbEntity
  8
Wire
100
AcDbSpline
210
0
220
0
230
1
 70
8
 71
3
 72
8
 73
4
 74
0
 40
0
 40
0
 40
0
 40
0
 40
1
 40
1
 40
1
 40
1
 10
377.459
 20
262.995
 30
0
 10
380.835
 20
262.913
 30
0
 10
382.613
 20
263.306
 30
0
 10
386.459
 20
262.772
 30
0
  0
SPLINE
  5
A26
330
A02
100
AcDbEntity
  8
Wire
100
AcDbSpline
210
0
220
0
230
1
 70
8
 71
3
 72
8
 73
4
 74
0
 40
0
 40
0
 40
0
 40
0
 40
1
 40
1
 40
1
 40
1
 10
386.459
 20
262.772
 30
0
 10
389.412
 20
262.361
 30
0
 10
391.614
 20
261.404
 30
0
 10
394.459
 20
261.07
 30
0
  0
SPLINE
  5
A27
330
A02
100
AcDbEntity
  8
Wire
100
AcDbSpline
210
0
220
0
230
1
 70
8
 71
3
 72
8
 73
4
 74
0
 40
0
 40
0
 40
0
 40
0
 40
1
 40
1
 40
1
 40
1
 10
394.459
 20
261.07
 30
0
 10
414.27
 20
258.743
 30
0
 10
434.977
 20
254.255
 30
0
 10
454.459
 20
248.556
 30
0
  0
SPLINE
  5
A28
330
A02
100
AcDbEntity
  8
Wire
100
AcDbSpline
210
0
220
0
230
1
 70
8
 71
3
 72
8
 73
4
 74
0
 40
0
 40
0
 40
0
 40
0
 40
1
 40
1
 40
1
 40
1
 10
454.459
 20
248.556
 30
0
 10
465.773
 20
245.247
 30
0
 10
477.75
 20
238.055
 30
0
 10
489.459
 20
237.205
 30
0
  0
SPLINE
  5
A29
330
A02
100
AcDbEntity
  8
Wire
100
AcDbSpline
210
0
220
0
230
1
 70
8
 71
3
 72
8
 73
4
 74
0
 40
0
 40
0
 40
0
 40
0
 40
1
 40
1
 40
1
 40
1
 10
489.459
 20
237.205
 30
0
 10
499.556
 20
236.472
 30
0
 10
513.382
 20
243.35
 30
0
 10
523.459
 20
245.631
 30
0
  0
SPLINE
  5
A2A
330
A02
100
AcDbEntity
  8
Wire
100
AcDbSpline
210
0
220
0
230
1
 70
8
 71
3
 72
8
 73
4
 74
0
 40
0
 40
0
 40
0
 40
0
 40
1
 40
1
 40
1
 40
1
 10
523.459
 20
245.631
 30
0
 10
526.931
 20
246.417
 30
0
 10
532.21
 20
246.962
 30
0
 10
534.141
 20
250.209
 30
0
  0
SPLINE
  5
A2B
330
A02
100
AcDbEntity
  8
Wire
100
AcDbSpline
210
0
220
0
230
1
 70
8
 71
3
 72
8
 73
4
 74
0
 40
0
 40
0
 40
0
 40
0
 40
1
 40
1
 40
1
 40
1
 10
534.141
 20
250.209
 30
0
 10
537.647
 20
256.107
 30
0
 10
536.677
 20
266.012
 30
0
 10
539.157
 20
272.981
 30
0
  0
SPLINE
  5
A2C
330
A02
100
AcDbEntity
  8
Wire
100
AcDbSpline
210
0
220
0
230
1
 70
8
 71
3
 72
8
 73
4
 74
0
 40
0
 40
0
 40
0
 40
0
 40
1
 40
1
 40
1
 40
1
 10
539.157
 20
272.981
 30
0
 10
540.407
 20
276.492
 30
0
 10
541.74
 20
279.941
 30
0
 10
543.957
 20
282.981
 30
0
  0
SPLINE
  5
A2D
330
A02
100
AcDbEntity
  8
Wire
100
AcDbSpline
210
0
220
0
230
1
 70
8
 71
3
 72
8
 73
4
 74
0
 40
0
 40
0
 40
0
 40
0
 40
1
 40
1
 40
1
 40
1
 10
543.957
 20
282.981
 30
0
 10
547.133
 20
287.335
 30
0
 10
551.717
 20
291.434
 30
0
 10
556.459
 20
294.421
 30
0
  0
SPLINE
  5
A2E
330
A02
100
AcDbEntity
  8
Wire
100
AcDbSpline
210
0
220
0
230
1
 70
8
 71
3
 72
8
 73
4
 74
0
 40
0
 40
0
 40
0
 40
0
 40
1
 40
1
 40
1
 40
1
 10
556.459
 20
294.421
 30
0
 10
562.389
 20
298.157
 30
0
 10
565.762
 20
297.974
 30
0
 10
571.459
 20
297.981
 30
0
  0
SPLINE
  5
A2F
330
A02
100
AcDbEntity
  8
Wire
100
AcDbSpline
210
0
220
0
230
1
 70
8
 71
3
 72
8
 73
4
 74
0
 40
0
 40
0
 40
0
 40
0
 40
1
 40
1
 40
1
 40
1
 10
571.459
 20
297.981
 30
0
 10
575.183
 20
297.986
 30
0
 10
578.2
 20
298.048
 30
0
 10
581.459
 20
297.3
 30
0
  0
SPLINE
  5
A30
330
A02
100
AcDbEntity
  8
Wire
100
AcDbSpline
210
0
220
0
230
1
 70
8
 71
3
 72
8
 73
4
 74
0
 40
0
 40
0
 40
0
 40
0
 40
1
 40
1
 40
1
 40
1
 10
581.459
 20
297.3
 30
0
 10
586.833
 20
296.067
 30
0
 10
591.878
 20
292.526
 30
0
 10
595.369
 20
288.98
 30
0
  0
SPLINE
  5
A31
330
A02
100
AcDbEntity
  8
Wire
100
AcDbSpline
210
0
220
0
230
1
 70
8
 71
3
 72
8
 73
4
 74
0
 40
0
 40
0
 40
0
 40
0
 40
1
 40
1
 40
1
 40
1
 10
595.369
 20
288.98
 30
0
 10
598.717
 20
285.58
 30
0
 10
600.407
 20
283.795
 30
0
 10
602.459
 20
281.981
 30
0
  0
SPLINE
  5
A32
330
A02
100
AcDbEntity
  8
Wire
100
AcDbSpline
210
0
220
0
230
1
 70
8
 71
3
 72
8
 73
4
 74
0
 40
0
 40
0
 40
0
 40
0
 40
1
 40
1
 40
1
 40
1
 10
602.459
 20
281.981
 30
0
 10
605.037
 20
283.946
 30
0
 10
607.246
 20
285.348
 30
0
 10
612.459
 20
286.226
 30
0
  0
SPLINE
  5
A33
330
A02
100
AcDbEntity
  8
Wire
100
AcDbSpline
210
0
220
0
230
1
 70
8
 71
3
 72
8
 73
4
 74
0
 40
0
 40
0
 40
0
 40
0
 40
1
 40
1
 40
1
 40
1
 10
612.459
 20
286.226
 30
0
 10
616.184
 20
286.854
 30
0
 10
622.991
 20
285.87
 30
0
 10
625.28
 20
289.299
 30
0
  0
SPLINE
  5
A34
330
A02
100
AcDbEntity
  8
Wire
100
AcDbSpline
210
0
220
0
230
1
 70
8
 71
3
 72
8
 73
4
 74
0
 40
0
 40
0
 40
0
 40
0
 40
1
 40
1
 40
1
 40
1
 10
625.28
 20
289.299
 30
0
 10
628.366
 20
293.924
 30
0
 10
625.743
 20
298.699
 30
0
 10
625.587
 20
304.981
 30
0
  0
SPLINE
  5
A35
330
A02
100
AcDbEntity
  8
Wire
100
AcDbSpline
210
0
220
0
230
1
 70
8
 71
3
 72
8
 73
4
 74
0
 40
0
 40
0
 40
0
 40
0
 40
1
 40
1
 40
1
 40
1
 10
625.587
 20
304.981
 30
0
 10
625.369
 20
313.823
 30
0
 10
626.455
 20
323.062
 30
0
 10
626.459
 20
331.981
 30
0
  0
SPLINE
  5
A36
330
A02
100
AcDbEntity
  8
Wire
100
AcDbSpline
210
0
220
0
230
1
 70
8
 71
3
 72
8
 73
4
 74
0
 40
0
 40
0
 40
0
 40
0
 40
1
 40
1
 40
1
 40
1
 10
626.459
 20
331.981
 30
0
 10
626.46
 20
335.158
 30
0
 10
625.706
 20
338.129
 30
0
 10
627.486
 20
340.377
 30
0
  0
SPLINE
  5
A37
330
A02
100
AcDbEntity
  8
Wire
100
AcDbSpline
210
0
220
0
230
1
 70
8
 71
3
 72
8
 73
4
 74
0
 40
0
 40
0
 40
0
 40
0
 40
1
 40
1
 40
1
 40
1
 10
627.486
 20
340.377
 30
0
 10
628.941
 20
342.215
 30
0
 10
631.266
 20
341.938
 30
0
 10
633.459
 20
341.976
 30
0
  0
SPLINE
  5
A38
330
A02
100
AcDbEntity
  8
Wire
100
AcDbSpline
210
0
220
0
230
1
 70
8
 71
3
 72
8
 73
4
 74
0
 40
0
 40
0
 40
0
 40
0
 40
1
 40
1
 40
1
 40
1
 10
633.459
 20
341.976
 30
0
 10
636.645
 20
342.031
 30
0
 10
638.241
 20
341.979
 30
0
 10
641.459
 20
341.556
 30
0
  0
SPLINE
  5
A39
330
A02
100
AcDbEntity
  8
Wire
100
AcDbSpline
210
0
220
0
230
1
 70
8
 71
3
 72
8
 73
4
 74
0
 40
0
 40
0
 40
0
 40
0
 40
1
 40
1
 40
1
 40
1
 10
641.459
 20
341.556
 30
0
 10
646.39
 20
340.909
 30
0
 10
648.529
 20
340.981
 30
0
 10
654.459
 20
340.981
 30
0
  0
SPLINE
  5
A3A
330
A02
100
AcDbEntity
  8
Wire
100
AcDbSpline
210
0
220
0
230
1
 70
8
 71
3
 72
8
 73
4
 74
0
 40
0
 40
0
 40
0
 40
0
 40
1
 40
1
 40
1
 40
1
 10
654.459
 20
340.981
 30
0
 10
659.59
 20
340.981
 30
0
 10
661.796
 20
341.117
 30
0
 10
666.459
 20
340.391
 30
0
  0
SPLINE
  5
A3B
330
A02
100
AcDbEntity
  8
Wire
100
AcDbSpline
210
0
220
0
230
1
 70
8
 71
3
 72
8
 73
4
 74
0
 40
0
 40
0
 40
0
 40
0
 40
1
 40
1
 40
1
 40
1
 10
666.459
 20
340.391
 30
0
 10
708.75
 20
333.799
 30
0
 10
741.687
 20
297.002
 30
0
 10
778.459
 20
277.295
 30
0
  0
SPLINE
  5
A3C
330
A02
100
AcDbEntity
  8
Wire
100
AcDbSpline
210
0
220
0
230
1
 70
8
 71
3
 72
8
 73
4
 74
0
 40
0
 40
0
 40
0
 40
0
 40
1
 40
1
 40
1
 40
1
 10
778.459
 20
277.295
 30
0
 10
797.568
 20
267.053
 30
0
 10
817.467
 20
259.42
 30
0
 10
837.459
 20
259.035
 30
0
  0
SPLINE
  5
A3D
330
A02
100
AcDbEntity
  8
Wire
100
AcDbSpline
210
0
220
0
230
1
 70
8
 71
3
 72
8
 73
4
 74
0
 40
0
 40
0
 40
0
 40
0
 40
1
 40
1
 40
1
 40
1
 10
837.459
 20
259.035
 30
0
 10
839.933
 20
258.987
 30
0
 10
841.217
 20
259.262
 30
0
 10
843.459
 20
259.556
 30
0
  0
SPLINE
  5
A3E
330
A02
100
AcDbEntity
  8
Wire
100
AcDbSpline
210
0
220
0
230
1
 70
8
 71
3
 72
8
 73
4
 74
0
 40
0
 40
0
 40
0
 40
0
 40
1
 40
1
 40
1
 40
1
 10
843.459
 20
259.556
 30
0
 10
845.806
 20
259.865
 30
0
 10
847.195
 20
259.89
 30
0
 10
849.459
 20
260.016
 30
0
  0
SPLINE
  5
A3F
330
A02
100
AcDbEntity
  8
Wire
100
AcDbSpline
210
0
220
0
230
1
 70
8
 71
3
 72
8
 73
4
 74
0
 40
0
 40
0
 40
0
 40
0
 40
1
 40
1
 40
1
 40
1
 10
849.459
 20
260.016
 30
0
 10
851.666
 20
260.139
 30
0
 10
853.418
 20
260.395
 30
0
 10
855.459
 20
260.735
 30
0
  0
SPLINE
  5
A40
330
A02
100
AcDbEntity
  8
Wire
100
AcDbSpline
210
0
220
0
230
1
 70
8
 71
3
 72
8
 73
4
 74
0
 40
0
 40
0
 40
0
 40
0
 40
1
 40
1
 40
1
 40
1
 10
855.459
 20
260.735
 30
0
 10
861.357
 20
261.719
 30
0
 10
871.444
 20
265.303
 30
0
 10
877.459
 20
266.366
 30
0
  0
SPLINE
  5
A41
330
A02
100
AcDbEntity
  8
Wire
100
AcDbSpline
210
0
220
0
230
1
 70
8
 71
3
 72
8
 73
4
 74
0
 40
0
 40
0
 40
0
 40
0
 40
1
 40
1
 40
1
 40
1
 10
877.459
 20
266.366
 30
0
 10
880.19
 20
266.848
 30
0
 10
882.642
 20
266.884
 30
0
 10
885.459
 20
267.019
 30
0
  0
SPLINE
  5
A42
330
A02
100
AcDbEntity
  8
Wire
100
AcDbSpline
210
0
220
0
230
1
 70
8
 71
3
 72
8
 73
4
 74
0
 40
0
 40
0
 40
0
 40
0
 40
1
 40
1
 40
1
 40
1
 10
885.459
 20
267.019
 30
0
 10
888.145
 20
267.149
 30
0
 10
889.534
 20
267.641
 30
0
 10
892.459
 20
267.641
 30
0
  0
SPLINE
  5
A43
330
A02
100
AcDbEntity
  8
Wire
100
AcDbSpline
210
0
220
0
230
1
 70
8
 71
3
 72
8
 73
4
 74
0
 40
0
 40
0
 40
0
 40
0
 40
1
 40
1
 40
1
 40
1
 10
892.459
 20
267.641
 30
0
 10
895.217
 20
267.641
 30
0
 10
896.795
 20
267.135
 30
0
 10
899.459
 20
267.02
 30
0
  0
SPLINE
  5
A44
330
A02
100
AcDbEntity
  8
Wire
100
AcDbSpline
210
0
220
0
230
1
 70
8
 71
3
 72
8
 73
4
 74
0
 40
0
 40
0
 40
0
 40
0
 40
1
 40
1
 40
1
 40
1
 10
899.459
 20
267.02
 30
0
 10
902.291
 20
266.898
 30
0
 10
905.553
 20
266.372
 30
0
 10
908.23
 20
268.009
 30
0
  0
SPLINE
  5
A45
330
A02
100
AcDbEntity
  8
Wire
100
AcDbSpline
210
0
220
0
230
1
 70
8
 71
3
 72
8
 73
4
 74
0
 40
0
 40
0
 40
0
 40
0
 40
1
 40
1
 40
1
 40
1
 10
908.23
 20
268.009
 30
0
 10
911.218
 20
269.836
 30
0
 10
911.569
 20
273.732
 30
0
 10
911.411
 20
276.981
 30
0
  0
SPLINE
  5
A46
330
A02
100
AcDbEntity
  8
Wire
100
AcDbSpline
210
0
220
0
230
1
 70
8
 71
3
 72
8
 73
4
 74
0
 40
0
 40
0
 40
0
 40
0
 40
1
 40
1
 40
1
 40
1
 10
911.411
 20
276.981
 30
0
 10
911.064
 20
284.122
 30
0
 10
904.784
 20
286.312
 30
0
 10
901.062
 20
290.614
 30
0
  0
SPLINE
  5
A47
330
A02
100
AcDbEntity
  8
Wire
100
AcDbSpline
210
0
220
0
230
1
 70
8
 71
3
 72
8
 73
4
 74
0
 40
0
 40
0
 40
0
 40
0
 40
1
 40
1
 40
1
 40
1
 10
901.062
 20
290.614
 30
0
 10
898.941
 20
293.067
 30
0
 10
899.466
 20
295.195
 30
0
 10
899.459
 20
298.981
 30
0
  0
SPLINE
  5
A48
330
A02
100
AcDbEntity
  8
Wire
100
AcDbSpline
210
0
220
0
230
1
 70
8
 71
3
 72
8
 73
4
 74
0
 40
0
 40
0
 40
0
 40
0
 40
1
 40
1
 40
1
 40
1
 10
899.459
 20
298.981
 30
0
 10
899.435
 20
310.381
 30
0
 10
897.864
 20
322.202
 30
0
 10
900.459
 20
330.981
 30
0
  0
SPLINE
  5
A49
330
A02
100
AcDbEntity
  8
Wire
100
AcDbSpline
210
0
220
0
230
1
 70
8
 71
3
 72
8
 73
4
 74
0
 40
0
 40
0
 40
0
 40
0
 40
1
 40
1
 40
1
 40
1
 10
900.459
 20
330.981
 30
0
 10
909.766
 20
328.23
 30
0
 10
927.594
 20
329.981
 30
0
 10
940.459
 20
329.981
 30
0
  0
SPLINE
  5
A4A
330
A02
100
AcDbEntity
  8
Wire
100
AcDbSpline
210
0
220
0
230
1
 70
8
 71
3
 72
8
 73
4
 74
0
 40
0
 40
0
 40
0
 40
0
 40
1
 40
1
 40
1
 40
1
 10
940.459
 20
329.981
 30
0
 10
945.051
 20
329.981
 30
0
 10
951.039
 20
329.931
 30
0
 10
955.459
 20
329.985
 30
0
  0
SPLINE
  5
A4B
330
A02
100
AcDbEntity
  8
Wire
100
AcDbSpline
210
0
220
0
230
1
 70
8
 71
3
 72
8
 73
4
 74
0
 40
0
 40
0
 40
0
 40
0
 40
1
 40
1
 40
1
 40
1
 10
955.459
 20
329.985
 30
0
 10
958.607
 20
330.023
 30
0
 10
960.868
 20
330.364
 30
0
 10
963.459
 20
330.981
 30
0
  0
SPLINE
  5
A4C
330
A02
100
AcDbEntity
  8
Wire
100
AcDbSpline
210
0
220
0
230
1
 70
8
 71
3
 72
8
 73
4
 74
0
 40
0
 40
0
 40
0
 40
0
 40
1
 40
1
 40
1
 40
1
 10
963.459
 20
330.981
 30
0
 10
966.033
 20
322.271
 30
0
 10
963.398
 20
320.212
 30
0
 10
967.785
 20
310.981
 30
0
  0
SPLINE
  5
A4D
330
A02
100
AcDbEntity
  8
Wire
100
AcDbSpline
210
0
220
0
230
1
 70
8
 71
3
 72
8
 73
4
 74
0
 40
0
 40
0
 40
0
 40
0
 40
1
 40
1
 40
1
 40
1
 10
967.785
 20
310.981
 30
0
 10
972.359
 20
301.357
 30
0
 10
981.13
 20
294.032
 30
0
 10
991.459
 20
292.307
 30
0
  0
SPLINE
  5
A4E
330
A02
100
AcDbEntity
  8
Wire
100
AcDbSpline
210
0
220
0
230
1
 70
8
 71
3
 72
8
 73
4
 74
0
 40
0
 40
0
 40
0
 40
0
 40
1
 40
1
 40
1
 40
1
 10
991.459
 20
292.307
 30
0
 10
995.458
 20
291.638
 30
0
 10
1009.71
 20
293.734
 30
0
 10
1010.86
 20
292.913
 30
0
  0
SPLINE
  5
A4F
330
A02
100
AcDbEntity
  8
Wire
100
AcDbSpline
210
0
220
0
230
1
 70
8
 71
3
 72
8
 73
4
 74
0
 40
0
 40
0
 40
0
 40
0
 40
1
 40
1
 40
1
 40
1
 10
1010.86
 20
292.913
 30
0
 10
1012.74
 20
291.564
 30
0
 10
1012.4
 20
289.724
 30
0
 10
1012.45
 20
286.98
 30
0
  0
SPLINE
  5
A50
330
A02
100
AcDbEntity
  8
Wire
100
AcDbSpline
210
0
220
0
230
1
 70
8
 71
3
 72
8
 73
4
 74
0
 40
0
 40
0
 40
0
 40
0
 40
1
 40
1
 40
1
 40
1
 10
1012.45
 20
286.98
 30
0
 10
1012.54
 20
282.667
 30
0
 10
1012.45
 20
274.736
 30
0
 10
1012.45
 20
269.981
 30
0
  0
SPLINE
  5
A51
330
A02
100
AcDbEntity
  8
Wire
100
AcDbSpline
210
0
220
0
230
1
 70
8
 71
3
 72
8
 73
4
 74
0
 40
0
 40
0
 40
0
 40
0
 40
1
 40
1
 40
1
 40
1
 10
1012.45
 20
269.981
 30
0
 10
1012.45
 20
250.35
 30
0
 10
1012.49
 20
227.259
 30
0
 10
1012.45
 20
207.981
 30
0
  0
SPLINE
  5
A52
330
A02
100
AcDbEntity
  8
Wire
100
AcDbSpline
210
0
220
0
230
1
 70
8
 71
3
 72
8
 73
4
 74
0
 40
0
 40
0
 40
0
 40
0
 40
1
 40
1
 40
1
 40
1
 10
1012.45
 20
207.981
 30
0
 10
1012.44
 20
204.084
 30
0
 10
1012.79
 20
202.02
 30
0
 10
1011.27
 20
198.981
 30
0
  0
SPLINE
  5
A53
330
A02
100
AcDbEntity
  8
Wire
100
AcDbSpline
210
0
220
0
230
1
 70
8
 71
3
 72
8
 73
4
 74
0
 40
0
 40
0
 40
0
 40
0
 40
1
 40
1
 40
1
 40
1
 10
1011.27
 20
198.981
 30
0
 10
1009.36
 20
195.145
 30
0
 10
1004.52
 20
190.6
 30
0
 10
1000.45
 20
188.538
 30
0
  0
SPLINE
  5
A54
330
A02
100
AcDbEntity
  8
Wire
100
AcDbSpline
210
0
220
0
230
1
 70
8
 71
3
 72
8
 73
4
 74
0
 40
0
 40
0
 40
0
 40
0
 40
1
 40
1
 40
1
 40
1
 10
1000.45
 20
188.538
 30
0
 10
994.282
 20
185.41
 30
0
 10
984.754
 20
184.269
 30
0
 10
980.156
 20
178.706
 30
0
  0
SPLINE
  5
A55
330
A02
100
AcDbEntity
  8
Wire
100
AcDbSpline
210
0
220
0
230
1
 70
8
 71
3
 72
8
 73
4
 74
0
 40
0
 40
0
 40
0
 40
0
 40
1
 40
1
 40
1
 40
1
 10
980.156
 20
178.706
 30
0
 10
976.098
 20
173.796
 30
0
 10
975.699
 20
166.657
 30
0
 10
973.142
 20
160.981
 30
0
  0
SPLINE
  5
A56
330
A02
100
AcDbEntity
  8
Wire
100
AcDbSpline
210
0
220
0
230
1
 70
8
 71
3
 72
8
 73
4
 74
0
 40
0
 40
0
 40
0
 40
0
 40
1
 40
1
 40
1
 40
1
 10
973.142
 20
160.981
 30
0
 10
969.931
 20
153.853
 30
0
 10
967
 20
145.602
 30
0
 10
963.318
 20
138.981
 30
0
  0
SPLINE
  5
A57
330
A02
100
AcDbEntity
  8
Wire
100
AcDbSpline
210
0
220
0
230
1
 70
8
 71
3
 72
8
 73
4
 74
0
 40
0
 40
0
 40
0
 40
0
 40
1
 40
1
 40
1
 40
1
 10
963.318
 20
138.981
 30
0
 10
956.189
 20
126.16
 30
0
 10
940.432
 20
115.506
 30
0
 10
927.454
 20
109.239
 30
0
  0
SPLINE
  5
A58
330
A02
100
AcDbEntity
  8
Wire
100
AcDbSpline
210
0
220
0
230
1
 70
8
 71
3
 72
8
 73
4
 74
0
 40
0
 40
0
 40
0
 40
0
 40
1
 40
1
 40
1
 40
1
 10
927.454
 20
109.239
 30
0
 10
920.441
 20
105.853
 30
0
 10
909.682
 20
102.907
 30
0
 10
902.454
 20
101.735
 30
0
  0
SPLINE
  5
A59
330
A02
100
AcDbEntity
  8
Wire
100
AcDbSpline
210
0
220
0
230
1
 70
8
 71
3
 72
8
 73
4
 74
0
 40
0
 40
0
 40
0
 40
0
 40
1
 40
1
 40
1
 40
1
 10
902.454
 20
101.735
 30
0
 10
898.269
 20
101.056
 30
0
 10
896.376
 20
100.975
 30
0
 10
891.454
 20
100.981
 30
0
  0
SPLINE
  5
A5A
330
A02
100
AcDbEntity
  8
Wire
100
AcDbSpline
210
0
220
0
230
1
 70
8
 71
3
 72
8
 73
4
 74
0
 40
0
 40
0
 40
0
 40
0
 40
1
 40
1
 40
1
 40
1
 10
891.454
 20
100.981
 30
0
 10
887.134
 20
100.986
 30
0
 10
885.248
 20
101.115
 30
0
 10
881.454
 20
101.735
 30
0
  0
SPLINE
  5
A5B
330
A02
100
AcDbEntity
  8
Wire
100
AcDbSpline
210
0
220
0
230
1
 70
8
 71
3
 72
8
 73
4
 74
0
 40
0
 40
0
 40
0
 40
0
 40
1
 40
1
 40
1
 40
1
 10
881.454
 20
101.735
 30
0
 10
873.446
 20
103.043
 30
0
 10
861.07
 20
107.816
 30
0
 10
853.454
 20
111.185
 30
0
  0
SPLINE
  5
A5C
330
A02
100
AcDbEntity
  8
Wire
100
AcDbSpline
210
0
220
0
230
1
 70
8
 71
3
 72
8
 73
4
 74
0
 40
0
 40
0
 40
0
 40
0
 40
1
 40
1
 40
1
 40
1
 10
853.454
 20
111.185
 30
0
 10
848.928
 20
113.187
 30
0
 10
846.911
 20
112.973
 30
0
 10
842.454
 20
112.981
 30
0
  0
SPLINE
  5
A5D
330
A02
100
AcDbEntity
  8
Wire
100
AcDbSpline
210
0
220
0
230
1
 70
8
 71
3
 72
8
 73
4
 74
0
 40
0
 40
0
 40
0
 40
0
 40
1
 40
1
 40
1
 40
1
 10
842.454
 20
112.981
 30
0
 10
835.534
 20
112.993
 30
0
 10
824.689
 20
112.981
 30
0
 10
817.454
 20
112.981
 30
0
  0
SPLINE
  5
A5E
330
A02
100
AcDbEntity
  8
Wire
100
AcDbSpline
210
0
220
0
230
1
 70
8
 71
3
 72
8
 73
4
 74
0
 40
0
 40
0
 40
0
 40
0
 40
1
 40
1
 40
1
 40
1
 10
817.454
 20
112.981
 30
0
 10
813.114
 20
112.981
 30
0
 10
811.194
 20
113.137
 30
0
 10
807.454
 20
112.695
 30
0
  0
SPLINE
  5
A5F
330
A02
100
AcDbEntity
  8
Wire
100
AcDbSpline
210
0
220
0
230
1
 70
8
 71
3
 72
8
 73
4
 74
0
 40
0
 40
0
 40
0
 40
0
 40
1
 40
1
 40
1
 40
1
 10
807.454
 20
112.695
 30
0
 10
804.277
 20
112.321
 30
0
 10
801.69
 20
111.997
 30
0
 10
798.454
 20
111.982
 30
0
  0
SPLINE
  5
A60
330
A02
100
AcDbEntity
  8
Wire
100
AcDbSpline
210
0
220
0
230
1
 70
8
 71
3
 72
8
 73
4
 74
0
 40
0
 40
0
 40
0
 40
0
 40
1
 40
1
 40
1
 40
1
 10
798.454
 20
111.982
 30
0
 10
789.69
 20
111.939
 30
0
 10
779.374
 20
111.981
 30
0
 10
770.459
 20
111.981
 30
0
  0
LINE
  5
A61
330
A02
100
AcDbEntity
  8
Wire
100
AcDbLine
 10
770.459
 20
111.981
 30
0
 11
652.459
 21
111.981
 31
0
  0
LINE
  5
A62
330
A02
100
AcDbEntity
  8
Wire
100
AcDbLine
 10
652.459
 20
111.981
 30
0
 11
596.459
 21
111.981
 31
0
  0
SPLINE
  5
A63
330
A02
100
AcDbEntity
  8
Wire
100
AcDbSpline
210
0
220
0
230
1
 70
8
 71
3
 72
8
 73
4
 74
0
 40
0
 40
0
 40
0
 40
0
 40
1
 40
1
 40
1
 40
1
 10
596.459
 20
111.981
 30
0
 10
587.859
 20
111.981
 30
0
 10
577.917
 20
111.984
 30
0
 10
569.459
 20
111.981
 30
0
  0
SPLINE
  5
A64
330
A02
100
AcDbEntity
  8
Wire
100
AcDbSpline
210
0
220
0
230
1
 70
8
 71
3
 72
8
 73
4
 74
0
 40
0
 40
0
 40
0
 40
0
 40
1
 40
1
 40
1
 40
1
 10
569.459
 20
111.981
 30
0
 10
566.269
 20
111.98
 30
0
 10
564.437
 20
112.047
 30
0
 10
561.459
 20
111.695
 30
0
  0
SPLINE
  5
A65
330
A02
100
AcDbEntity
  8
Wire
100
AcDbSpline
210
0
220
0
230
1
 70
8
 71
3
 72
8
 73
4
 74
0
 40
0
 40
0
 40
0
 40
0
 40
1
 40
1
 40
1
 40
1
 10
561.459
 20
111.695
 30
0
 10
558.487
 20
111.345
 30
0
 10
556.215
 20
111.017
 30
0
 10
553.459
 20
110.985
 30
0
  0
SPLINE
  5
A66
330
A02
100
AcDbEntity
  8
Wire
100
AcDbSpline
210
0
220
0
230
1
 70
8
 71
3
 72
8
 73
4
 74
0
 40
0
 40
0
 40
0
 40
0
 40
1
 40
1
 40
1
 40
1
 10
553.459
 20
110.985
 30
0
 10
549.312
 20
110.935
 30
0
 10
543.763
 20
110.981
 30
0
 10
539.459
 20
110.981
 30
0
  0
LINE
  5
A67
330
A02
100
AcDbEntity
  8
Wire
100
AcDbLine
 10
539.459
 20
110.981
 30
0
 11
450.459
 21
110.981
 31
0
  0
SPLINE
  5
A68
330
A02
100
AcDbEntity
  8
Wire
100
AcDbSpline
210
0
220
0
230
1
 70
8
 71
3
 72
8
 73
4
 74
0
 40
0
 40
0
 40
0
 40
0
 40
1
 40
1
 40
1
 40
1
 10
450.459
 20
110.981
 30
0
 10
439.561
 20
110.981
 30
0
 10
424.712
 20
108.378
 30
0
 10
416.503
 20
111.723
 30
0
  0
SPLINE
  5
A69
330
A02
100
AcDbEntity
  8
Wire
100
AcDbSpline
210
0
220
0
230
1
 70
8
 71
3
 72
8
 73
4
 74
0
 40
0
 40
0
 40
0
 40
0
 40
1
 40
1
 40
1
 40
1
 10
416.503
 20
111.723
 30
0
 10
410.771
 20
114.059
 30
0
 10
411.514
 20
118.428
 30
0
 10
411.459
 20
122.981
 30
0
  0
SPLINE
  5
A6A
330
A02
100
AcDbEntity
  8
Wire
100
AcDbSpline
210
0
220
0
230
1
 70
8
 71
3
 72
8
 73
4
 74
0
 40
0
 40
0
 40
0
 40
0
 40
1
 40
1
 40
1
 40
1
 10
411.459
 20
122.981
 30
0
 10
411.416
 20
126.439
 30
0
 10
411.477
 20
128.628
 30
0
 10
409.855
 20
130.562
 30
0
  0
SPLINE
  5
A6B
330
A02
100
AcDbEntity
  8
Wire
100
AcDbSpline
210
0
220
0
230
1
 70
8
 71
3
 72
8
 73
4
 74
0
 40
0
 40
0
 40
0
 40
0
 40
1
 40
1
 40
1
 40
1
 10
409.855
 20
130.562
 30
0
 10
407.617
 20
133.23
 30
0
 10
399.226
 20
135.674
 30
0
 10
395.459
 20
137.181
 30
0
  0
SPLINE
  5
A6C
330
A02
100
AcDbEntity
  8
Wire
100
AcDbSpline
210
0
220
0
230
1
 70
8
 71
3
 72
8
 73
4
 74
0
 40
0
 40
0
 40
0
 40
0
 40
1
 40
1
 40
1
 40
1
 10
395.459
 20
137.181
 30
0
 10
383.045
 20
142.146
 30
0
 10
366.225
 20
151.129
 30
0
 10
353.462
 20
153.313
 30
0
  0
SPLINE
  5
A6D
330
A02
100
AcDbEntity
  8
Wire
100
AcDbSpline
210
0
220
0
230
1
 70
8
 71
3
 72
8
 73
4
 74
0
 40
0
 40
0
 40
0
 40
0
 40
1
 40
1
 40
1
 40
1
 10
353.462
 20
153.313
 30
0
 10
349.18
 20
154.045
 30
0
 10
347.544
 20
151.304
 30
0
 10
345.718
 20
147.976
 30
0
  0
SPLINE
  5
A6E
330
A02
100
AcDbEntity
  8
Wire
100
AcDbSpline
210
0
220
0
230
1
 70
8
 71
3
 72
8
 73
4
 74
0
 40
0
 40
0
 40
0
 40
0
 40
1
 40
1
 40
1
 40
1
 10
345.718
 20
147.976
 30
0
 10
342.04
 20
141.275
 30
0
 10
337.848
 20
134.53
 30
0
 10
332.444
 20
128.981
 30
0
  0
SPLINE
  5
A6F
330
A02
100
AcDbEntity
  8
Wire
100
AcDbSpline
210
0
220
0
230
1
 70
8
 71
3
 72
8
 73
4
 74
0
 40
0
 40
0
 40
0
 40
0
 40
1
 40
1
 40
1
 40
1
 10
332.444
 20
128.981
 30
0
 10
316.546
 20
112.657
 30
0
 10
294.195
 20
101.503
 30
0
 10
273.459
 20
100.995
 30
0
  0
SPLINE
  5
A70
330
A02
100
AcDbEntity
  8
Wire
100
AcDbSpline
210
0
220
0
230
1
 70
8
 71
3
 72
8
 73
4
 74
0
 40
0
 40
0
 40
0
 40
0
 40
1
 40
1
 40
1
 40
1
 10
273.459
 20
100.995
 30
0
 10
267.311
 20
100.845
 30
0
 10
263.978
 20
101.132
 30
0
 10
258.459
 20
102.062
 30
0
  0
SPLINE
  5
A71
330
A02
100
AcDbEntity
  8
Wire
100
AcDbSpline
210
0
220
0
230
1
 70
8
 71
3
 72
8
 73
4
 74
0
 40
0
 40
0
 40
0
 40
0
 40
1
 40
1
 40
1
 40
1
 10
258.459
 20
102.062
 30
0
 10
250.584
 20
103.388
 30
0
 10
241.245
 20
106.074
 30
0
 10
234.459
 20
109.624
 30
0
  0
SPLINE
  5
A72
330
A02
100
AcDbEntity
  8
Wire
100
AcDbSpline
210
0
220
0
230
1
 70
8
 71
3
 72
8
 73
4
 74
0
 40
0
 40
0
 40
0
 40
0
 40
1
 40
1
 40
1
 40
1
 10
234.459
 20
109.624
 30
0
 10
229.167
 20
112.392
 30
0
 10
224.468
 20
115.392
 30
0
 10
219.459
 20
119.441
 30
0
  0
SPLINE
  5
A73
330
A02
100
AcDbEntity
  8
Wire
100
AcDbSpline
210
0
220
0
230
1
 70
8
 71
3
 72
8
 73
4
 74
0
 40
0
 40
0
 40
0
 40
0
 40
1
 40
1
 40
1
 40
1
 10
219.459
 20
119.441
 30
0
 10
216.638
 20
121.721
 30
0
 10
214.174
 20
123.812
 30
0
 10
211.748
 20
126.266
 30
0
  0
SPLINE
  5
A74
330
A02
100
AcDbEntity
  8
Wire
100
AcDbSpline
210
0
220
0
230
1
 70
8
 71
3
 72
8
 73
4
 74
0
 40
0
 40
0
 40
0
 40
0
 40
1
 40
1
 40
1
 40
1
 10
211.748
 20
126.266
 30
0
 10
209.358
 20
128.685
 30
0
 10
207.502
 20
131.146
 30
0
 10
205.343
 20
133.981
 30
0
  0
SPLINE
  5
A75
330
A02
100
AcDbEntity
  8
Wire
100
AcDbSpline
210
0
220
0
230
1
 70
8
 71
3
 72
8
 73
4
 74
0
 40
0
 40
0
 40
0
 40
0
 40
1
 40
1
 40
1
 40
1
 10
205.343
 20
133.981
 30
0
 10
199.987
 20
141.012
 30
0
 10
196.121
 20
147.643
 30
0
 10
193.151
 20
155.981
 30
0
  0
SPLINE
  5
A76
330
A02
100
AcDbEntity
  8
Wire
100
AcDbSpline
210
0
220
0
230
1
 70
8
 71
3
 72
8
 73
4
 74
0
 40
0
 40
0
 40
0
 40
0
 40
1
 40
1
 40
1
 40
1
 10
193.151
 20
155.981
 30
0
 10
191.732
 20
159.963
 30
0
 10
190.699
 20
168.592
 30
0
 10
187.859
 20
171.377
 30
0
  0
SPLINE
  5
A77
330
A02
100
AcDbEntity
  8
Wire
100
AcDbSpline
210
0
220
0
230
1
 70
8
 71
3
 72
8
 73
4
 74
0
 40
0
 40
0
 40
0
 40
0
 40
1
 40
1
 40
1
 40
1
 10
187.859
 20
171.377
 30
0
 10
185.135
 20
174.049
 30
0
 10
181.754
 20
172.974
 30
0
 10
177.459
 20
172.981
 30
0
  0
SPLINE
  5
A78
330
A02
100
AcDbEntity
  8
Wire
100
AcDbSpline
210
0
220
0
230
1
 70
8
 71
3
 72
8
 73
4
 74
0
 40
0
 40
0
 40
0
 40
0
 40
1
 40
1
 40
1
 40
1
 10
177.459
 20
172.981
 30
0
 10
173.613
 20
172.987
 30
0
 10
170.932
 20
173.285
 30
0
 10
167.459
 20
173.695
 30
0
  0
SPLINE
  5
A79
330
A02
100
AcDbEntity
  8
Wire
100
AcDbSpline
210
0
220
0
230
1
 70
8
 71
3
 72
8
 73
4
 74
0
 40
0
 40
0
 40
0
 40
0
 40
1
 40
1
 40
1
 40
1
 10
167.459
 20
173.695
 30
0
 10
163.719
 20
174.137
 30
0
 10
161.798
 20
173.981
 30
0
 10
157.459
 20
173.981
 30
0
  0
SPLINE
  5
A7A
330
A02
100
AcDbEntity
  8
Wire
100
AcDbSpline
210
0
220
0
230
1
 70
8
 71
3
 72
8
 73
4
 74
0
 40
0
 40
0
 40
0
 40
0
 40
1
 40
1
 40
1
 40
1
 10
157.459
 20
173.981
 30
0
 10
152.749
 20
173.981
 30
0
 10
147.102
 20
174.012
 30
0
 10
142.459
 20
173.98
 30
0
  0
SPLINE
  5
A7B
330
A02
100
AcDbEntity
  8
Wire
100
AcDbSpline
210
0
220
0
230
1
 70
8
 71
3
 72
8
 73
4
 74
0
 40
0
 40
0
 40
0
 40
0
 40
1
 40
1
 40
1
 40
1
 10
142.459
 20
173.98
 30
0
 10
140.137
 20
173.964
 30
0
 10
137.839
 20
174.36
 30
0
 10
136.062
 20
172.953
 30
0
  0
SPLINE
  5
A7C
330
A02
100
AcDbEntity
  8
Wire
100
AcDbSpline
210
0
220
0
230
1
 70
8
 71
3
 72
8
 73
4
 74
0
 40
0
 40
0
 40
0
 40
0
 40
1
 40
1
 40
1
 40
1
 10
136.062
 20
172.953
 30
0
 10
133.793
 20
171.156
 30
0
 10
134.457
 20
166.422
 30
0
 10
134.459
 20
162.981
 30
0
  0
SPLINE
  5
A7D
330
A02
100
AcDbEntity
  8
Wire
100
AcDbSpline
210
0
220
0
230
1
 70
8
 71
3
 72
8
 73
4
 74
0
 40
0
 40
0
 40
0
 40
0
 40
1
 40
1
 40
1
 40
1
 10
134.459
 20
162.981
 30
0
 10
134.46
 20
159.804
 30
0
 10
133.821
 20
155.039
 30
0
 10
136.776
 20
153.584
 30
0
  0
SPLINE
  5
A7E
330
A02
100
AcDbEntity
  8
Wire
100
AcDbSpline
210
0
220
0
230
1
 70
8
 71
3
 72
8
 73
4
 74
0
 40
0
 40
0
 40
0
 40
0
 40
1
 40
1
 40
1
 40
1
 10
136.776
 20
153.584
 30
0
 10
143.314
 20
150.367
 30
0
 10
160.812
 20
152.985
 30
0
 10
169.459
 20
152.981
 30
0
  0
SPLINE
  5
A7F
330
A02
100
AcDbEntity
  8
Wire
100
AcDbSpline
210
0
220
0
230
1
 70
8
 71
3
 72
8
 73
4
 74
0
 40
0
 40
0
 40
0
 40
0
 40
1
 40
1
 40
1
 40
1
 10
169.459
 20
152.981
 30
0
 10
172.288
 20
152.98
 30
0
 10
175.678
 20
153.678
 30
0
 10
177.855
 20
151.953
 30
0
  0
SPLINE
  5
A80
330
A02
100
AcDbEntity
  8
Wire
100
AcDbSpline
210
0
220
0
230
1
 70
8
 71
3
 72
8
 73
4
 74
0
 40
0
 40
0
 40
0
 40
0
 40
1
 40
1
 40
1
 40
1
 10
177.855
 20
151.953
 30
0
 10
180.364
 20
149.966
 30
0
 10
179.458
 20
145.622
 30
0
 10
179.459
 20
141.981
 30
0
  0
SPLINE
  5
A81
330
A02
100
AcDbEntity
  8
Wire
100
AcDbSpline
210
0
220
0
230
1
 70
8
 71
3
 72
8
 73
4
 74
0
 40
0
 40
0
 40
0
 40
0
 40
1
 40
1
 40
1
 40
1
 10
179.459
 20
141.981
 30
0
 10
179.459
 20
136.11
 30
0
 10
179.497
 20
127.615
 30
0
 10
179.458
 20
121.981
 30
0
  0
SPLINE
  5
A82
330
A02
100
AcDbEntity
  8
Wire
100
AcDbSpline
210
0
220
0
230
1
 70
8
 71
3
 72
8
 73
4
 74
0
 40
0
 40
0
 40
0
 40
0
 40
1
 40
1
 40
1
 40
1
 10
179.458
 20
121.981
 30
0
 10
179.441
 20
119.469
 30
0
 10
179.835
 20
117.455
 30
0
 10
178.431
 20
115.414
 30
0
  0
SPLINE
  5
A83
330
A02
100
AcDbEntity
  8
Wire
100
AcDbSpline
210
0
220
0
230
1
 70
8
 71
3
 72
8
 73
4
 74
0
 40
0
 40
0
 40
0
 40
0
 40
1
 40
1
 40
1
 40
1
 10
178.431
 20
115.414
 30
0
 10
176.618
 20
112.78
 30
0
 10
173.037
 20
113.021
 30
0
 10
170.459
 20
112.985
 30
0
  0
SPLINE
  5
A84
330
A02
100
AcDbEntity
  8
Wire
100
AcDbSpline
210
0
220
0
230
1
 70
8
 71
3
 72
8
 73
4
 74
0
 40
0
 40
0
 40
0
 40
0
 40
1
 40
1
 40
1
 40
1
 10
170.459
 20
112.985
 30
0
 10
164.099
 20
112.896
 30
0
 10
155.089
 20
112.981
 30
0
 10
148.459
 20
112.981
 30
0
  0
LINE
  5
A85
330
A02
100
AcDbEntity
  8
Wire
100
AcDbLine
 10
148.459
 20
112.981
 30
0
 11
51.4586
 21
112.981
 31
0
  0
ENDSEC
  0
SECTION
  2
OBJECTS
  0
DICTIONARY
  5
F000
330
0
100
AcDbDictionary
  3
ACAD_GROUP
350
F001
  0
DICTIONARY
  5
F001
330
F000
100
AcDbDictionary
  0
ENDSEC
  0
EOF