ISO-10303-21;
HEADER;
FILE_DESCRIPTION(('STEP AP214'),'1');
FILE_NAME('YAG_CFR25_YAG','2023-11-16T07:56:51',(''),(''),'','','');
FILE_SCHEMA(('AUTOMOTIVE_DESIGN'));
ENDSEC;
DATA;
#1=SHAPE_DEFINITION_REPRESENTATION(#2,#3);
#2=PRODUCT_DEFINITION_SHAPE('',$,#4);
#3=SHAPE_REPRESENTATION('',(#188,#244,#626,#19),#11);
#4=PRODUCT_DEFINITION('design','example product_definition',#6,#5);
#5=PRODUCT_DEFINITION_CONTEXT('3D Mechanical Parts',#10,'design');
#6=PRODUCT_DEFINITION_FORMATION('1.0','first version',#8);
#7=APPLICATION_PROTOCOL_DEFINITION('international standard','automotive_design',2003,#10);
#8=PRODUCT('product','part','',(#9));
#9=PRODUCT_CONTEXT('3D Mechanical Parts',#10,'mechanical');
#10=APPLICATION_CONTEXT('Core Data for Automotive Mechanical Design Process');
#11=(GEOMETRIC_REPRESENTATION_CONTEXT(3) GLOBAL_UNCERTAINTY_ASSIGNED_CONTEXT((#12)) GLOBAL_UNIT_ASSIGNED_CONTEXT((#13,#14,#18)) REPRESENTATION_CONTEXT('ID1','3D'));
#12=UNCERTAINTY_MEASURE_WITH_UNIT(LENGTH_MEASURE(1.E-005),#13,'DISTANCE_ACCURACY_VALUE','Maximum model space distance between geometric entities at asserted connectivities');
#13=(LENGTH_UNIT() NAMED_UNIT(*) SI_UNIT(.MILLI.,.METRE.));
#14=(CONVERSION_BASED_UNIT('degree',#16) NAMED_UNIT(#15) PLANE_ANGLE_UNIT());
#15=DIMENSIONAL_EXPONENTS(0.,0.,0.,0.,0.,0.,0.);
#16=MEASURE_WITH_UNIT(PLANE_ANGLE_MEASURE(0.01745329252),#17);
#17=(NAMED_UNIT(*) PLANE_ANGLE_UNIT() SI_UNIT($,.RADIAN.));
#18=(NAMED_UNIT(*) SI_UNIT($,.STERADIAN.) SOLID_ANGLE_UNIT());
#19=AXIS2_PLACEMENT_3D('',#20,#21,#22);
#20=CARTESIAN_POINT('',(0.0,0.0,0.0));
#21=DIRECTION('',(0.0,0.0,1.0));
#22=DIRECTION('',(1.0,0.0,0.0));
#25=MECHANICAL_DESIGN_GEOMETRIC_PRESENTATION_REPRESENTATION($,(#240,#241,#242,#246,#277,#330,#383,#436,#489,#542,#595,#628,#659,#712,#765,#818,#871,#924,#977),#11);
#26=PRODUCT_CATEGORY_RELATIONSHIP('','',#27,#28);
#27=PRODUCT_CATEGORY('part','');
#28=PRODUCT_RELATED_PRODUCT_CATEGORY('','',(#8));
#34=PRESENTATION_STYLE_ASSIGNMENT((#35,#40));
#35=SURFACE_STYLE_USAGE(.BOTH.,#36);
#36=SURFACE_SIDE_STYLE('',(#37));
#37=SURFACE_STYLE_FILL_AREA(#38);
#38=FILL_AREA_STYLE('',(#39));
#39=FILL_AREA_STYLE_COLOUR('',#41);
#40=CURVE_STYLE('',#42,POSITIVE_LENGTH_MEASURE(0.1),#41);
#41=COLOUR_RGB('Aluminum',0.725,0.725,0.725);
#42=DRAUGHTING_PRE_DEFINED_CURVE_FONT('continuous');
#43=PRESENTATION_STYLE_ASSIGNMENT((#44,#49));
#44=SURFACE_STYLE_USAGE(.BOTH.,#45);
#45=SURFACE_SIDE_STYLE('',(#46));
#46=SURFACE_STYLE_FILL_AREA(#47);
#47=FILL_AREA_STYLE('',(#48));
#48=FILL_AREA_STYLE_COLOUR('',#50);
#49=CURVE_STYLE('',#51,POSITIVE_LENGTH_MEASURE(0.1),#50);
#50=COLOUR_RGB('Black',0.196,0.196,0.196);
#51=DRAUGHTING_PRE_DEFINED_CURVE_FONT('continuous');
#52=PRESENTATION_STYLE_ASSIGNMENT((#53,#58));
#53=SURFACE_STYLE_USAGE(.BOTH.,#54);
#54=SURFACE_SIDE_STYLE('',(#55));
#55=SURFACE_STYLE_FILL_AREA(#56);
#56=FILL_AREA_STYLE('',(#57));
#57=FILL_AREA_STYLE_COLOUR('',#59);
#58=CURVE_STYLE('',#60,POSITIVE_LENGTH_MEASURE(0.1),#59);
#59=COLOUR_RGB('Pin1Axial',0.98,0.706,0.176);
#60=DRAUGHTING_PRE_DEFINED_CURVE_FONT('continuous');
#61=PRESENTATION_STYLE_ASSIGNMENT((#62,#67));
#62=SURFACE_STYLE_USAGE(.BOTH.,#63);
#63=SURFACE_SIDE_STYLE('',(#64));
#64=SURFACE_STYLE_FILL_AREA(#65);
#65=FILL_AREA_STYLE('',(#66));
#66=FILL_AREA_STYLE_COLOUR('',#68);
#67=CURVE_STYLE('',#69,POSITIVE_LENGTH_MEASURE(0.1),#68);
#68=COLOUR_RGB('HeatTab',0.588,0.588,0.588);
#69=DRAUGHTING_PRE_DEFINED_CURVE_FONT('continuous');
#70=PRESENTATION_STYLE_ASSIGNMENT((#71,#76));
#71=SURFACE_STYLE_USAGE(.BOTH.,#72);
#72=SURFACE_SIDE_STYLE('',(#73));
#73=SURFACE_STYLE_FILL_AREA(#74);
#74=FILL_AREA_STYLE('',(#75));
#75=FILL_AREA_STYLE_COLOUR('',#77);
#76=CURVE_STYLE('',#78,POSITIVE_LENGTH_MEASURE(0.1),#77);
#77=COLOUR_RGB('Gold',0.843,0.686,0.0);
#78=DRAUGHTING_PRE_DEFINED_CURVE_FONT('continuous');
#79=PRESENTATION_STYLE_ASSIGNMENT((#80,#85));
#80=SURFACE_STYLE_USAGE(.BOTH.,#81);
#81=SURFACE_SIDE_STYLE('',(#82));
#82=SURFACE_STYLE_FILL_AREA(#83);
#83=FILL_AREA_STYLE('',(#84));
#84=FILL_AREA_STYLE_COLOUR('',#86);
#85=CURVE_STYLE('',#87,POSITIVE_LENGTH_MEASURE(0.1),#86);
#86=COLOUR_RGB('Brown',0.459,0.345,0.176);
#87=DRAUGHTING_PRE_DEFINED_CURVE_FONT('continuous');
#88=PRESENTATION_STYLE_ASSIGNMENT((#89,#94));
#89=SURFACE_STYLE_USAGE(.BOTH.,#90);
#90=SURFACE_SIDE_STYLE('',(#91));
#91=SURFACE_STYLE_FILL_AREA(#92);
#92=FILL_AREA_STYLE('',(#93));
#93=FILL_AREA_STYLE_COLOUR('',#95);
#94=CURVE_STYLE('',#96,POSITIVE_LENGTH_MEASURE(0.1),#95);
#95=COLOUR_RGB('Tan',0.784,0.686,0.51);
#96=DRAUGHTING_PRE_DEFINED_CURVE_FONT('continuous');
#97=PRESENTATION_STYLE_ASSIGNMENT((#98,#103));
#98=SURFACE_STYLE_USAGE(.BOTH.,#99);
#99=SURFACE_SIDE_STYLE('',(#100));
#100=SURFACE_STYLE_FILL_AREA(#101);
#101=FILL_AREA_STYLE('',(#102));
#102=FILL_AREA_STYLE_COLOUR('',#104);
#103=CURVE_STYLE('',#105,POSITIVE_LENGTH_MEASURE(0.1),#104);
#104=COLOUR_RGB('Gray',0.431,0.431,0.431);
#105=DRAUGHTING_PRE_DEFINED_CURVE_FONT('continuous');
#106=PRESENTATION_STYLE_ASSIGNMENT((#107,#112));
#107=SURFACE_STYLE_USAGE(.BOTH.,#108);
#108=SURFACE_SIDE_STYLE('',(#109));
#109=SURFACE_STYLE_FILL_AREA(#110);
#110=FILL_AREA_STYLE('',(#111));
#111=FILL_AREA_STYLE_COLOUR('',#113);
#112=CURVE_STYLE('',#114,POSITIVE_LENGTH_MEASURE(0.1),#113);
#113=COLOUR_RGB('Red',0.6,0.0,0.0);
#114=DRAUGHTING_PRE_DEFINED_CURVE_FONT('continuous');
#115=PRESENTATION_STYLE_ASSIGNMENT((#116,#121));
#116=SURFACE_STYLE_USAGE(.BOTH.,#117);
#117=SURFACE_SIDE_STYLE('',(#118));
#118=SURFACE_STYLE_FILL_AREA(#119);
#119=FILL_AREA_STYLE('',(#120));
#120=FILL_AREA_STYLE_COLOUR('',#122);
#121=CURVE_STYLE('',#123,POSITIVE_LENGTH_MEASURE(0.1),#122);
#122=COLOUR_RGB('Blue',0.157,0.157,0.588);
#123=DRAUGHTING_PRE_DEFINED_CURVE_FONT('continuous');
#124=PRESENTATION_STYLE_ASSIGNMENT((#125,#130));
#125=SURFACE_STYLE_USAGE(.BOTH.,#126);
#126=SURFACE_SIDE_STYLE('',(#127));
#127=SURFACE_STYLE_FILL_AREA(#128);
#128=FILL_AREA_STYLE('',(#129));
#129=FILL_AREA_STYLE_COLOUR('',#131);
#130=CURVE_STYLE('',#132,POSITIVE_LENGTH_MEASURE(0.1),#131);
#131=COLOUR_RGB('Maroon',0.294,0.0,0.0);
#132=DRAUGHTING_PRE_DEFINED_CURVE_FONT('continuous');
#133=PRESENTATION_STYLE_ASSIGNMENT((#134,#139));
#134=SURFACE_STYLE_USAGE(.BOTH.,#135);
#135=SURFACE_SIDE_STYLE('',(#136));
#136=SURFACE_STYLE_FILL_AREA(#137);
#137=FILL_AREA_STYLE('',(#138));
#138=FILL_AREA_STYLE_COLOUR('',#140);
#139=CURVE_STYLE('',#141,POSITIVE_LENGTH_MEASURE(0.1),#140);
#140=COLOUR_RGB('Green',0.0,0.294,0.0);
#141=DRAUGHTING_PRE_DEFINED_CURVE_FONT('continuous');
#142=PRESENTATION_STYLE_ASSIGNMENT((#143,#148));
#143=SURFACE_STYLE_USAGE(.BOTH.,#144);
#144=SURFACE_SIDE_STYLE('',(#145));
#145=SURFACE_STYLE_FILL_AREA(#146);
#146=FILL_AREA_STYLE('',(#147));
#147=FILL_AREA_STYLE_COLOUR('',#149);
#148=CURVE_STYLE('',#150,POSITIVE_LENGTH_MEASURE(0.1),#149);
#149=COLOUR_RGB('Pin1',0.588,0.588,0.059);
#150=DRAUGHTING_PRE_DEFINED_CURVE_FONT('continuous');
#151=PRESENTATION_STYLE_ASSIGNMENT((#152,#157));
#152=SURFACE_STYLE_USAGE(.BOTH.,#153);
#153=SURFACE_SIDE_STYLE('',(#154));
#154=SURFACE_STYLE_FILL_AREA(#155);
#155=FILL_AREA_STYLE('',(#156));
#156=FILL_AREA_STYLE_COLOUR('',#158);
#157=CURVE_STYLE('',#159,POSITIVE_LENGTH_MEASURE(0.1),#158);
#158=COLOUR_RGB('Pin1Wrap',0.98,0.706,0.176);
#159=DRAUGHTING_PRE_DEFINED_CURVE_FONT('continuous');
#160=PRESENTATION_STYLE_ASSIGNMENT((#161,#166));
#161=SURFACE_STYLE_USAGE(.BOTH.,#162);
#162=SURFACE_SIDE_STYLE('',(#163));
#163=SURFACE_STYLE_FILL_AREA(#164);
#164=FILL_AREA_STYLE('',(#165));
#165=FILL_AREA_STYLE_COLOUR('',#167);
#166=CURVE_STYLE('',#168,POSITIVE_LENGTH_MEASURE(0.1),#167);
#167=COLOUR_RGB('Pin1Rad',0.588,0.588,0.588);
#168=DRAUGHTING_PRE_DEFINED_CURVE_FONT('continuous');
#169=PRESENTATION_STYLE_ASSIGNMENT((#170,#175));
#170=SURFACE_STYLE_USAGE(.BOTH.,#171);
#171=SURFACE_SIDE_STYLE('',(#172));
#172=SURFACE_STYLE_FILL_AREA(#173);
#173=FILL_AREA_STYLE('',(#174));
#174=FILL_AREA_STYLE_COLOUR('',#176);
#175=CURVE_STYLE('',#177,POSITIVE_LENGTH_MEASURE(0.1),#176);
#176=COLOUR_RGB('Pin1Tant',0.459,0.345,0.176);
#177=DRAUGHTING_PRE_DEFINED_CURVE_FONT('continuous');
#178=PRESENTATION_STYLE_ASSIGNMENT((#179,#184));
#179=SURFACE_STYLE_USAGE(.BOTH.,#180);
#180=SURFACE_SIDE_STYLE('',(#181));
#181=SURFACE_STYLE_FILL_AREA(#182);
#182=FILL_AREA_STYLE('',(#183));
#183=FILL_AREA_STYLE_COLOUR('',#185);
#184=CURVE_STYLE('',#186,POSITIVE_LENGTH_MEASURE(0.1),#185);
#185=COLOUR_RGB('Shroud',0.235,0.235,0.235);
#186=DRAUGHTING_PRE_DEFINED_CURVE_FONT('continuous');
#188=MANIFOLD_SOLID_BREP($,#189);
#189=CLOSED_SHELL('',(#190,#191,#192));
#190=ADVANCED_FACE($,(#196,#195),#213,.T.);
#191=ADVANCED_FACE($,(#197),#193,.F.);
#192=ADVANCED_FACE($,(#198),#194,.T.);
#193=PLANE($,#218);
#194=PLANE($,#219);
#195=FACE_BOUND($,#200,.T.);
#196=FACE_OUTER_BOUND($,#199,.T.);
#197=FACE_OUTER_BOUND($,#201,.T.);
#198=FACE_OUTER_BOUND($,#202,.T.);
#199=EDGE_LOOP($,(#209));
#200=EDGE_LOOP($,(#210));
#201=EDGE_LOOP($,(#211));
#202=EDGE_LOOP($,(#212));
#203=CIRCLE($,#216,1.2954);
#204=CIRCLE($,#217,1.2954);
#205=VERTEX_POINT('',#234);
#206=VERTEX_POINT('',#236);
#207=EDGE_CURVE($,#205,#205,#203,.T.);
#208=EDGE_CURVE($,#206,#206,#204,.T.);
#209=ORIENTED_EDGE($,*,*,#207,.F.);
#210=ORIENTED_EDGE($,*,*,#208,.F.);
#211=ORIENTED_EDGE($,*,*,#208,.T.);
#212=ORIENTED_EDGE($,*,*,#207,.T.);
#213=CYLINDRICAL_SURFACE($,#215,1.2954);
#214=AXIS2_PLACEMENT_3D('placement',#232,#220,#221);
#215=AXIS2_PLACEMENT_3D($,#233,#222,#223);
#216=AXIS2_PLACEMENT_3D($,#235,#224,#225);
#217=AXIS2_PLACEMENT_3D($,#237,#226,#227);
#218=AXIS2_PLACEMENT_3D($,#238,#228,#229);
#219=AXIS2_PLACEMENT_3D($,#239,#230,#231);
#220=DIRECTION('axis',(0.,1.,0.));
#221=DIRECTION('refdir',(0.,0.,1.));
#222=DIRECTION('',(-1.,0.,0.));
#223=DIRECTION('',(0.,0.,1.));
#224=DIRECTION('',(-1.,0.,0.));
#225=DIRECTION('',(0.,0.,1.));
#226=DIRECTION('',(1.,0.,0.));
#227=DIRECTION('',(0.,0.,1.));
#228=DIRECTION('',(-1.,0.,0.));
#229=DIRECTION('',(0.,1.,0.));
#230=DIRECTION('',(-1.,0.,0.));
#231=DIRECTION('',(0.,1.,0.));
#232=CARTESIAN_POINT('',(0.,0.,0.));
#233=CARTESIAN_POINT('',(9.246,0.0,1.295));
#234=CARTESIAN_POINT('',(2.438,0.0,0.0));
#235=CARTESIAN_POINT('',(2.438,0.0,1.295));
#236=CARTESIAN_POINT('',(9.246,0.0,0.0));
#237=CARTESIAN_POINT('',(9.246,0.0,1.295));
#238=CARTESIAN_POINT('',(9.246,0.0,1.295));
#239=CARTESIAN_POINT('',(2.438,0.0,1.295));
#240=STYLED_ITEM('color',(#43),#190);
#241=STYLED_ITEM('color',(#43),#191);
#242=STYLED_ITEM('color',(#43),#192);
#244=MANIFOLD_SOLID_BREP($,#245);
#245=CLOSED_SHELL('',(#247,#278,#331,#384,#437,#490,#543,#596));
#246=STYLED_ITEM('color',(#34),#247);
#247=ADVANCED_FACE($,(#253),#248,.T.);
#248=PLANE($,#249);
#249=AXIS2_PLACEMENT_3D($,#250,#251,#252);
#250=CARTESIAN_POINT('',(2.438,0.0,1.295));
#251=DIRECTION('',(1.0,0.0,0.0));
#252=DIRECTION('',(0.,1.,0.));
#253=FACE_OUTER_BOUND($,#254,.T.);
#254=EDGE_LOOP($,(#255, #266));
#258=CARTESIAN_POINT('',(2.438,0.0,1.6));
#257=VERTEX_POINT('',#258);
#260=CARTESIAN_POINT('',(2.438,0.0,0.991));
#259=VERTEX_POINT('',#260);
#256=EDGE_CURVE($,#257,#259,#261,.T.);
#261=CIRCLE($,#262,0.3048);
#263=CARTESIAN_POINT('',(2.438,0.0,1.295));
#262=AXIS2_PLACEMENT_3D($,#263,#264,#265);
#264=DIRECTION('',(-1.0,0.0,0.0));
#265=DIRECTION('',(0.0,0.0,1.0));
#255=ORIENTED_EDGE('',*,*,#256,.F.);
#267=EDGE_CURVE($,#259,#257,#272,.T.);
#272=CIRCLE($,#273,0.3048);
#273=AXIS2_PLACEMENT_3D($,#263,#275,#276);
#275=DIRECTION('',(-1.0,0.0,0.0));
#276=DIRECTION('',(0.0,0.0,1.0));
#266=ORIENTED_EDGE('',*,*,#267,.F.);
#277=STYLED_ITEM('color',(#34),#278);
#278=ADVANCED_FACE($,(#284),#279,.T.);
#279=CYLINDRICAL_SURFACE($,#280,0.3048);
#280=AXIS2_PLACEMENT_3D($,#281,#282,#283);
#281=CARTESIAN_POINT('',(1.067,0.0,1.295));
#282=DIRECTION('',(1.0,0.0,0.0));
#283=DIRECTION('',(0.0,-1.0,0.0));
#284=FACE_OUTER_BOUND($,#285,.T.);
#285=EDGE_LOOP($,(#308, #286, #318, #297));
#311=CARTESIAN_POINT('',(1.067,0.0,0.991));
#310=VERTEX_POINT('',#311);
#309=EDGE_CURVE('',#310,#259,#314,.T.);
#314=LINE('',#311,#316);
#316=VECTOR('',#317,1.3716);
#317=DIRECTION('',(1.0,0.0,0.0));
#308=ORIENTED_EDGE('',*,*,#309,.F.);
#289=CARTESIAN_POINT('',(1.067,0.0,1.6));
#288=VERTEX_POINT('',#289);
#287=EDGE_CURVE($,#288,#310,#292,.T.);
#292=CIRCLE($,#293,0.3048);
#294=CARTESIAN_POINT('',(1.067,0.0,1.295));
#293=AXIS2_PLACEMENT_3D($,#294,#295,#296);
#295=DIRECTION('',(-1.0,0.0,0.0));
#296=DIRECTION('',(0.0,0.0,1.0));
#286=ORIENTED_EDGE('',*,*,#287,.F.);
#319=EDGE_CURVE('',#257,#288,#324,.T.);
#324=LINE('',#258,#326);
#326=VECTOR('',#327,1.3716);
#327=DIRECTION('',(-1.0,0.0,0.0));
#318=ORIENTED_EDGE('',*,*,#319,.F.);
#297=ORIENTED_EDGE('',*,*,#256,.T.);
#330=STYLED_ITEM('color',(#34),#331);
#331=ADVANCED_FACE($,(#337),#332,.T.);
#332=CYLINDRICAL_SURFACE($,#333,0.3048);
#333=AXIS2_PLACEMENT_3D($,#334,#335,#336);
#334=CARTESIAN_POINT('',(1.067,0.0,1.295));
#335=DIRECTION('',(1.0,0.0,0.0));
#336=DIRECTION('',(0.0,-1.0,0.0));
#337=FACE_OUTER_BOUND($,#338,.T.);
#338=EDGE_LOOP($,(#361, #339, #371, #350));
#361=ORIENTED_EDGE('',*,*,#309,.T.);
#339=ORIENTED_EDGE('',*,*,#267,.T.);
#371=ORIENTED_EDGE('',*,*,#319,.T.);
#351=EDGE_CURVE($,#310,#288,#356,.T.);
#356=CIRCLE($,#357,0.3048);
#357=AXIS2_PLACEMENT_3D($,#294,#359,#360);
#359=DIRECTION('',(-1.0,0.0,0.0));
#360=DIRECTION('',(0.0,0.0,-1.0));
#350=ORIENTED_EDGE('',*,*,#351,.F.);
#383=STYLED_ITEM('color',(#34),#384);
#384 = ADVANCED_FACE ( '', ( #390 ), #385, .T. ) ;
#385 = TOROIDAL_SURFACE ( '', #386, 1.0668, 0.3048 ) ;
#386 = AXIS2_PLACEMENT_3D ( '', #387, #388, #389 ) ;
#387 = CARTESIAN_POINT ( '',  ( 1.067,0.0,0.229 ) ) ;
#388 = DIRECTION ( '',  ( 0.0,1.0,0.0 ) ) ;
#389 = DIRECTION ( '',  ( 0.0000000000000000000, 0.0000000000000000000, -1.000000000000000000 ) ) ;
#390 = FACE_OUTER_BOUND ( '', #391, .T. ) ;
#391 = EDGE_LOOP ( '', ( #392, #403, #414, #425 ) ) ;
#392=ORIENTED_EDGE('',*,*,#287,.T.);
#406=CARTESIAN_POINT('',(0.305,0.0,0.229));
#405=VERTEX_POINT('',#406);
#404=EDGE_CURVE($,#405,#310,#409,.T.);
#409=CIRCLE($,#410,0.762);
#411=CARTESIAN_POINT('',(1.067,0.0,0.229));
#410=AXIS2_PLACEMENT_3D($,#411,#412,#413);
#412=DIRECTION('',(0.0,1.0,0.0));
#413=DIRECTION('',(-1.0,0.0,0.0));
#403=ORIENTED_EDGE('',*,*,#404,.F.);
#417=CARTESIAN_POINT('',(-0.305,0.0,0.229));
#416=VERTEX_POINT('',#417);
#415=EDGE_CURVE($,#416,#405,#420,.T.);
#420=CIRCLE($,#421,0.3048);
#422=CARTESIAN_POINT('',(0.0,0.0,0.229));
#421=AXIS2_PLACEMENT_3D($,#422,#423,#424);
#423=DIRECTION('',(0.0,0.0,-1.0));
#424=DIRECTION('',(1.0,0.0,0.0));
#414=ORIENTED_EDGE('',*,*,#415,.F.);
#426=EDGE_CURVE($,#288,#416,#431,.T.);
#431=CIRCLE($,#432,1.3716);
#432=AXIS2_PLACEMENT_3D($,#411,#434,#435);
#434=DIRECTION('',(0.0,-1.0,0.0));
#435=DIRECTION('',(-1.0,0.0,0.0));
#425=ORIENTED_EDGE('',*,*,#426,.F.);
#436=STYLED_ITEM('color',(#34),#437);
#437 = ADVANCED_FACE ( '', ( #443 ), #438, .T. ) ;
#438 = TOROIDAL_SURFACE ( '', #439, 1.0668, 0.3048 ) ;
#439 = AXIS2_PLACEMENT_3D ( '', #440, #441, #442 ) ;
#440 = CARTESIAN_POINT ( '',  ( 1.067,0.0,0.229 ) ) ;
#441 = DIRECTION ( '',  ( 0.0,-1.0,0.0 ) ) ;
#442 = DIRECTION ( '',  ( 0.0000000000000000000, 0.0000000000000000000, 1.000000000000000000 ) ) ;
#443 = FACE_OUTER_BOUND ( '', #444, .T. ) ;
#444 = EDGE_LOOP ( '', ( #445, #456, #467, #478 ) ) ;
#446=EDGE_CURVE($,#405,#416,#451,.T.);
#451=CIRCLE($,#452,0.3048);
#452=AXIS2_PLACEMENT_3D($,#422,#454,#455);
#454=DIRECTION('',(0.0,0.0,-1.0));
#455=DIRECTION('',(1.0,0.0,0.0));
#445=ORIENTED_EDGE('',*,*,#446,.F.);
#456=ORIENTED_EDGE('',*,*,#404,.T.);
#467=ORIENTED_EDGE('',*,*,#351,.T.);
#478=ORIENTED_EDGE('',*,*,#426,.T.);
#489=STYLED_ITEM('color',(#34),#490);
#490=ADVANCED_FACE($,(#496),#491,.T.);
#491=CYLINDRICAL_SURFACE($,#492,0.3048);
#492=AXIS2_PLACEMENT_3D($,#493,#494,#495);
#493=CARTESIAN_POINT('',(0.0,0.0,-2.794));
#494=DIRECTION('',(0.0,0.0,1.0));
#495=DIRECTION('',(0.0,-1.0,0.0));
#496=FACE_OUTER_BOUND($,#497,.T.);
#497=EDGE_LOOP($,(#520, #498, #530, #509));
#523=CARTESIAN_POINT('',(0.305,0.0,-2.794));
#522=VERTEX_POINT('',#523);
#521=EDGE_CURVE('',#522,#405,#526,.T.);
#526=LINE('',#523,#528);
#528=VECTOR('',#529,3.0226);
#529=DIRECTION('',(0.0,0.0,1.0));
#520=ORIENTED_EDGE('',*,*,#521,.F.);
#501=CARTESIAN_POINT('',(-0.305,0.0,-2.794));
#500=VERTEX_POINT('',#501);
#499=EDGE_CURVE($,#500,#522,#504,.T.);
#504=CIRCLE($,#505,0.3048);
#506=CARTESIAN_POINT('',(0.0,0.0,-2.794));
#505=AXIS2_PLACEMENT_3D($,#506,#507,#508);
#507=DIRECTION('',(0.0,0.0,-1.0));
#508=DIRECTION('',(-1.0,0.0,0.0));
#498=ORIENTED_EDGE('',*,*,#499,.F.);
#531=EDGE_CURVE('',#416,#500,#536,.T.);
#536=LINE('',#417,#538);
#538=VECTOR('',#539,3.0226);
#539=DIRECTION('',(0.0,0.0,-1.0));
#530=ORIENTED_EDGE('',*,*,#531,.F.);
#509=ORIENTED_EDGE('',*,*,#415,.T.);
#542=STYLED_ITEM('color',(#34),#543);
#543=ADVANCED_FACE($,(#549),#544,.T.);
#544=CYLINDRICAL_SURFACE($,#545,0.3048);
#545=AXIS2_PLACEMENT_3D($,#546,#547,#548);
#546=CARTESIAN_POINT('',(0.0,0.0,-2.794));
#547=DIRECTION('',(0.0,0.0,1.0));
#548=DIRECTION('',(0.0,-1.0,0.0));
#549=FACE_OUTER_BOUND($,#550,.T.);
#550=EDGE_LOOP($,(#573, #551, #583, #562));
#573=ORIENTED_EDGE('',*,*,#531,.T.);
#552=EDGE_CURVE($,#522,#500,#557,.T.);
#557=CIRCLE($,#558,0.3048);
#558=AXIS2_PLACEMENT_3D($,#506,#560,#561);
#560=DIRECTION('',(0.0,0.0,-1.0));
#561=DIRECTION('',(-1.0,0.0,0.0));
#551=ORIENTED_EDGE('',*,*,#552,.F.);
#583=ORIENTED_EDGE('',*,*,#521,.T.);
#562=ORIENTED_EDGE('',*,*,#446,.T.);
#595=STYLED_ITEM('color',(#34),#596);
#596=ADVANCED_FACE($,(#602),#597,.T.);
#597=PLANE($,#598);
#598=AXIS2_PLACEMENT_3D($,#599,#600,#601);
#599=CARTESIAN_POINT('',(0.0,0.0,-2.794));
#600=DIRECTION('',(0.0,0.0,-1.0));
#601=DIRECTION('',(0.,1.,0.));
#602=FACE_OUTER_BOUND($,#603,.T.);
#603=EDGE_LOOP($,(#604, #615));
#604=ORIENTED_EDGE('',*,*,#499,.T.);
#615=ORIENTED_EDGE('',*,*,#552,.T.);
#626=MANIFOLD_SOLID_BREP($,#627);
#627=CLOSED_SHELL('',(#629,#660,#713,#766,#819,#872,#925,#978));
#628=STYLED_ITEM('color',(#34),#629);
#629=ADVANCED_FACE($,(#635),#630,.T.);
#630=PLANE($,#631);
#631=AXIS2_PLACEMENT_3D($,#632,#633,#634);
#632=CARTESIAN_POINT('',(9.246,0.0,1.295));
#633=DIRECTION('',(-1.0,0.0,0.0));
#634=DIRECTION('',(0.,1.,0.));
#635=FACE_OUTER_BOUND($,#636,.T.);
#636=EDGE_LOOP($,(#637, #648));
#640=CARTESIAN_POINT('',(9.246,0.0,1.6));
#639=VERTEX_POINT('',#640);
#642=CARTESIAN_POINT('',(9.246,0.0,0.991));
#641=VERTEX_POINT('',#642);
#638=EDGE_CURVE($,#639,#641,#643,.T.);
#643=CIRCLE($,#644,0.3048);
#645=CARTESIAN_POINT('',(9.246,0.0,1.295));
#644=AXIS2_PLACEMENT_3D($,#645,#646,#647);
#646=DIRECTION('',(1.0,0.0,0.0));
#647=DIRECTION('',(0.0,0.0,1.0));
#637=ORIENTED_EDGE('',*,*,#638,.F.);
#649=EDGE_CURVE($,#641,#639,#654,.T.);
#654=CIRCLE($,#655,0.3048);
#655=AXIS2_PLACEMENT_3D($,#645,#657,#658);
#657=DIRECTION('',(1.0,0.0,0.0));
#658=DIRECTION('',(0.0,0.0,1.0));
#648=ORIENTED_EDGE('',*,*,#649,.F.);
#659=STYLED_ITEM('color',(#34),#660);
#660=ADVANCED_FACE($,(#666),#661,.T.);
#661=CYLINDRICAL_SURFACE($,#662,0.3048);
#662=AXIS2_PLACEMENT_3D($,#663,#664,#665);
#663=CARTESIAN_POINT('',(10.617,0.0,1.295));
#664=DIRECTION('',(-1.0,0.0,0.0));
#665=DIRECTION('',(0.0,1.0,0.0));
#666=FACE_OUTER_BOUND($,#667,.T.);
#667=EDGE_LOOP($,(#690, #668, #700, #679));
#693=CARTESIAN_POINT('',(10.617,0.0,0.991));
#692=VERTEX_POINT('',#693);
#691=EDGE_CURVE('',#692,#641,#696,.T.);
#696=LINE('',#693,#698);
#698=VECTOR('',#699,1.3716);
#699=DIRECTION('',(-1.0,0.0,0.0));
#690=ORIENTED_EDGE('',*,*,#691,.F.);
#671=CARTESIAN_POINT('',(10.617,0.0,1.6));
#670=VERTEX_POINT('',#671);
#669=EDGE_CURVE($,#670,#692,#674,.T.);
#674=CIRCLE($,#675,0.3048);
#676=CARTESIAN_POINT('',(10.617,0.0,1.295));
#675=AXIS2_PLACEMENT_3D($,#676,#677,#678);
#677=DIRECTION('',(1.0,0.0,0.0));
#678=DIRECTION('',(0.0,0.0,1.0));
#668=ORIENTED_EDGE('',*,*,#669,.F.);
#701=EDGE_CURVE('',#639,#670,#706,.T.);
#706=LINE('',#640,#708);
#708=VECTOR('',#709,1.3716);
#709=DIRECTION('',(1.0,0.0,0.0));
#700=ORIENTED_EDGE('',*,*,#701,.F.);
#679=ORIENTED_EDGE('',*,*,#638,.T.);
#712=STYLED_ITEM('color',(#34),#713);
#713=ADVANCED_FACE($,(#719),#714,.T.);
#714=CYLINDRICAL_SURFACE($,#715,0.3048);
#715=AXIS2_PLACEMENT_3D($,#716,#717,#718);
#716=CARTESIAN_POINT('',(10.617,0.0,1.295));
#717=DIRECTION('',(-1.0,0.0,0.0));
#718=DIRECTION('',(0.0,1.0,0.0));
#719=FACE_OUTER_BOUND($,#720,.T.);
#720=EDGE_LOOP($,(#743, #721, #753, #732));
#743=ORIENTED_EDGE('',*,*,#691,.T.);
#721=ORIENTED_EDGE('',*,*,#649,.T.);
#753=ORIENTED_EDGE('',*,*,#701,.T.);
#733=EDGE_CURVE($,#692,#670,#738,.T.);
#738=CIRCLE($,#739,0.3048);
#739=AXIS2_PLACEMENT_3D($,#676,#741,#742);
#741=DIRECTION('',(1.0,0.0,0.0));
#742=DIRECTION('',(0.0,0.0,-1.0));
#732=ORIENTED_EDGE('',*,*,#733,.F.);
#765=STYLED_ITEM('color',(#34),#766);
#766 = ADVANCED_FACE ( '', ( #772 ), #767, .T. ) ;
#767 = TOROIDAL_SURFACE ( '', #768, 1.0668, 0.3048 ) ;
#768 = AXIS2_PLACEMENT_3D ( '', #769, #770, #771 ) ;
#769 = CARTESIAN_POINT ( '',  ( 10.617,0.0,0.229 ) ) ;
#770 = DIRECTION ( '',  ( 0.0,-1.0,0.0 ) ) ;
#771 = DIRECTION ( '',  ( 0.0000000000000000000, 0.0000000000000000000, -1.000000000000000000 ) ) ;
#772 = FACE_OUTER_BOUND ( '', #773, .T. ) ;
#773 = EDGE_LOOP ( '', ( #774, #785, #796, #807 ) ) ;
#774=ORIENTED_EDGE('',*,*,#669,.T.);
#788=CARTESIAN_POINT('',(11.379,0.0,0.229));
#787=VERTEX_POINT('',#788);
#786=EDGE_CURVE($,#787,#692,#791,.T.);
#791=CIRCLE($,#792,0.762);
#793=CARTESIAN_POINT('',(10.617,0.0,0.229));
#792=AXIS2_PLACEMENT_3D($,#793,#794,#795);
#794=DIRECTION('',(0.0,-1.0,0.0));
#795=DIRECTION('',(1.0,0.0,0.0));
#785=ORIENTED_EDGE('',*,*,#786,.F.);
#799=CARTESIAN_POINT('',(11.989,0.0,0.229));
#798=VERTEX_POINT('',#799);
#797=EDGE_CURVE($,#798,#787,#802,.T.);
#802=CIRCLE($,#803,0.3048);
#804=CARTESIAN_POINT('',(11.684,0.0,0.229));
#803=AXIS2_PLACEMENT_3D($,#804,#805,#806);
#805=DIRECTION('',(0.0,0.0,-1.0));
#806=DIRECTION('',(-1.0,0.0,0.0));
#796=ORIENTED_EDGE('',*,*,#797,.F.);
#808=EDGE_CURVE($,#670,#798,#813,.T.);
#813=CIRCLE($,#814,1.3716);
#814=AXIS2_PLACEMENT_3D($,#793,#816,#817);
#816=DIRECTION('',(0.0,1.0,0.0));
#817=DIRECTION('',(1.0,0.0,0.0));
#807=ORIENTED_EDGE('',*,*,#808,.F.);
#818=STYLED_ITEM('color',(#34),#819);
#819 = ADVANCED_FACE ( '', ( #825 ), #820, .T. ) ;
#820 = TOROIDAL_SURFACE ( '', #821, 1.0668, 0.3048 ) ;
#821 = AXIS2_PLACEMENT_3D ( '', #822, #823, #824 ) ;
#822 = CARTESIAN_POINT ( '',  ( 10.617,0.0,0.229 ) ) ;
#823 = DIRECTION ( '',  ( 0.0,1.0,0.0 ) ) ;
#824 = DIRECTION ( '',  ( 0.0000000000000000000, 0.0000000000000000000, 1.000000000000000000 ) ) ;
#825 = FACE_OUTER_BOUND ( '', #826, .T. ) ;
#826 = EDGE_LOOP ( '', ( #827, #838, #849, #860 ) ) ;
#828=EDGE_CURVE($,#787,#798,#833,.T.);
#833=CIRCLE($,#834,0.3048);
#834=AXIS2_PLACEMENT_3D($,#804,#836,#837);
#836=DIRECTION('',(0.0,0.0,-1.0));
#837=DIRECTION('',(-1.0,0.0,0.0));
#827=ORIENTED_EDGE('',*,*,#828,.F.);
#838=ORIENTED_EDGE('',*,*,#786,.T.);
#849=ORIENTED_EDGE('',*,*,#733,.T.);
#860=ORIENTED_EDGE('',*,*,#808,.T.);
#871=STYLED_ITEM('color',(#34),#872);
#872=ADVANCED_FACE($,(#878),#873,.T.);
#873=CYLINDRICAL_SURFACE($,#874,0.3048);
#874=AXIS2_PLACEMENT_3D($,#875,#876,#877);
#875=CARTESIAN_POINT('',(11.684,0.0,-2.794));
#876=DIRECTION('',(0.0,0.0,1.0));
#877=DIRECTION('',(0.0,1.0,0.0));
#878=FACE_OUTER_BOUND($,#879,.T.);
#879=EDGE_LOOP($,(#902, #880, #912, #891));
#905=CARTESIAN_POINT('',(11.379,0.0,-2.794));
#904=VERTEX_POINT('',#905);
#903=EDGE_CURVE('',#904,#787,#908,.T.);
#908=LINE('',#905,#910);
#910=VECTOR('',#911,3.0226);
#911=DIRECTION('',(0.0,0.0,1.0));
#902=ORIENTED_EDGE('',*,*,#903,.F.);
#883=CARTESIAN_POINT('',(11.989,0.0,-2.794));
#882=VERTEX_POINT('',#883);
#881=EDGE_CURVE($,#882,#904,#886,.T.);
#886=CIRCLE($,#887,0.3048);
#888=CARTESIAN_POINT('',(11.684,0.0,-2.794));
#887=AXIS2_PLACEMENT_3D($,#888,#889,#890);
#889=DIRECTION('',(0.0,0.0,-1.0));
#890=DIRECTION('',(1.0,0.0,0.0));
#880=ORIENTED_EDGE('',*,*,#881,.F.);
#913=EDGE_CURVE('',#798,#882,#918,.T.);
#918=LINE('',#799,#920);
#920=VECTOR('',#921,3.0226);
#921=DIRECTION('',(0.0,0.0,-1.0));
#912=ORIENTED_EDGE('',*,*,#913,.F.);
#891=ORIENTED_EDGE('',*,*,#797,.T.);
#924=STYLED_ITEM('color',(#34),#925);
#925=ADVANCED_FACE($,(#931),#926,.T.);
#926=CYLINDRICAL_SURFACE($,#927,0.3048);
#927=AXIS2_PLACEMENT_3D($,#928,#929,#930);
#928=CARTESIAN_POINT('',(11.684,0.0,-2.794));
#929=DIRECTION('',(0.0,0.0,1.0));
#930=DIRECTION('',(0.0,1.0,0.0));
#931=FACE_OUTER_BOUND($,#932,.T.);
#932=EDGE_LOOP($,(#955, #933, #965, #944));
#955=ORIENTED_EDGE('',*,*,#913,.T.);
#934=EDGE_CURVE($,#904,#882,#939,.T.);
#939=CIRCLE($,#940,0.3048);
#940=AXIS2_PLACEMENT_3D($,#888,#942,#943);
#942=DIRECTION('',(0.0,0.0,-1.0));
#943=DIRECTION('',(1.0,0.0,0.0));
#933=ORIENTED_EDGE('',*,*,#934,.F.);
#965=ORIENTED_EDGE('',*,*,#903,.T.);
#944=ORIENTED_EDGE('',*,*,#828,.T.);
#977=STYLED_ITEM('color',(#34),#978);
#978=ADVANCED_FACE($,(#984),#979,.T.);
#979=PLANE($,#980);
#980=AXIS2_PLACEMENT_3D($,#981,#982,#983);
#981=CARTESIAN_POINT('',(11.684,0.0,-2.794));
#982=DIRECTION('',(0.0,0.0,-1.0));
#983=DIRECTION('',(0.,1.,0.));
#984=FACE_OUTER_BOUND($,#985,.T.);
#985=EDGE_LOOP($,(#986, #997));
#986=ORIENTED_EDGE('',*,*,#881,.T.);
#997=ORIENTED_EDGE('',*,*,#934,.T.);
ENDSEC;
END-ISO-10303-21;
