ISO-10303-21;
HEADER;
/* Generated by software containing ST-Developer
 * from STEP Tools, Inc. (www.steptools.com) 
 */

FILE_DESCRIPTION(
/* description */ (''),
/* implementation_level */ '2;1');

FILE_NAME(
/* name */ 
'C:\\Users\\Public\\Documents\\Autodesk\\Inventor LT 2014\\Workspace\\
Vishay\\STEP Files\\WSL1206 (High).stp',
/* time_stamp */ '2015-08-25T11:05:24-05:00',
/* author */ ('Neil'),
/* organization */ (''),
/* preprocessor_version */ 'ST-DEVELOPER v15.2',
/* originating_system */ 'Autodesk Inventor LT ',
/* authorisation */ '');

FILE_SCHEMA (('AUTOMOTIVE_DESIGN { 1 0 10303 214 3 1 1 }'));
ENDSEC;

DATA;
#10=SHAPE_REPRESENTATION_RELATIONSHIP('SRR','None',#689,#11);
#11=ADVANCED_BREP_SHAPE_REPRESENTATION($,(#408,#409,#410),#680);
#12=STYLED_ITEM($,(#698),#408);
#13=STYLED_ITEM($,(#698),#409);
#14=STYLED_ITEM($,(#699),#410);
#15=PLANE($,#415);
#16=PLANE($,#416);
#17=PLANE($,#420);
#18=PLANE($,#421);
#19=PLANE($,#422);
#20=PLANE($,#423);
#21=PLANE($,#427);
#22=PLANE($,#428);
#23=PLANE($,#432);
#24=PLANE($,#433);
#25=PLANE($,#434);
#26=PLANE($,#435);
#27=PLANE($,#439);
#28=PLANE($,#443);
#29=PLANE($,#444);
#30=PLANE($,#445);
#31=PLANE($,#446);
#32=PLANE($,#447);
#33=FACE_OUTER_BOUND($,#57,.T.);
#34=FACE_OUTER_BOUND($,#58,.T.);
#35=FACE_OUTER_BOUND($,#59,.T.);
#36=FACE_OUTER_BOUND($,#60,.T.);
#37=FACE_OUTER_BOUND($,#61,.T.);
#38=FACE_OUTER_BOUND($,#62,.T.);
#39=FACE_OUTER_BOUND($,#63,.T.);
#40=FACE_OUTER_BOUND($,#64,.T.);
#41=FACE_OUTER_BOUND($,#65,.T.);
#42=FACE_OUTER_BOUND($,#66,.T.);
#43=FACE_OUTER_BOUND($,#67,.T.);
#44=FACE_OUTER_BOUND($,#68,.T.);
#45=FACE_OUTER_BOUND($,#69,.T.);
#46=FACE_OUTER_BOUND($,#70,.T.);
#47=FACE_OUTER_BOUND($,#71,.T.);
#48=FACE_OUTER_BOUND($,#72,.T.);
#49=FACE_OUTER_BOUND($,#73,.T.);
#50=FACE_OUTER_BOUND($,#74,.T.);
#51=FACE_OUTER_BOUND($,#75,.T.);
#52=FACE_OUTER_BOUND($,#76,.T.);
#53=FACE_OUTER_BOUND($,#77,.T.);
#54=FACE_OUTER_BOUND($,#78,.T.);
#55=FACE_OUTER_BOUND($,#79,.T.);
#56=FACE_OUTER_BOUND($,#80,.T.);
#57=EDGE_LOOP($,(#267,#268,#269,#270));
#58=EDGE_LOOP($,(#271,#272,#273,#274));
#59=EDGE_LOOP($,(#275,#276,#277,#278,#279,#280));
#60=EDGE_LOOP($,(#281,#282,#283,#284));
#61=EDGE_LOOP($,(#285,#286,#287,#288));
#62=EDGE_LOOP($,(#289,#290,#291,#292));
#63=EDGE_LOOP($,(#293,#294,#295,#296,#297,#298));
#64=EDGE_LOOP($,(#299,#300,#301,#302));
#65=EDGE_LOOP($,(#303,#304,#305,#306));
#66=EDGE_LOOP($,(#307,#308,#309,#310));
#67=EDGE_LOOP($,(#311,#312,#313,#314,#315,#316));
#68=EDGE_LOOP($,(#317,#318,#319,#320));
#69=EDGE_LOOP($,(#321,#322,#323,#324,#325,#326));
#70=EDGE_LOOP($,(#327,#328,#329,#330));
#71=EDGE_LOOP($,(#331,#332,#333,#334));
#72=EDGE_LOOP($,(#335,#336,#337,#338));
#73=EDGE_LOOP($,(#339,#340,#341,#342));
#74=EDGE_LOOP($,(#343,#344,#345,#346));
#75=EDGE_LOOP($,(#347,#348,#349,#350));
#76=EDGE_LOOP($,(#351,#352,#353,#354,#355,#356));
#77=EDGE_LOOP($,(#357,#358,#359,#360,#361,#362));
#78=EDGE_LOOP($,(#363,#364,#365,#366));
#79=EDGE_LOOP($,(#367,#368,#369,#370));
#80=EDGE_LOOP($,(#371,#372,#373,#374));
#81=LINE($,#570,#123);
#82=LINE($,#573,#124);
#83=LINE($,#576,#125);
#84=LINE($,#578,#126);
#85=LINE($,#579,#127);
#86=LINE($,#582,#128);
#87=LINE($,#584,#129);
#88=LINE($,#586,#130);
#89=LINE($,#590,#131);
#90=LINE($,#594,#132);
#91=LINE($,#595,#133);
#92=LINE($,#598,#134);
#93=LINE($,#599,#135);
#94=LINE($,#601,#136);
#95=LINE($,#608,#137);
#96=LINE($,#611,#138);
#97=LINE($,#614,#139);
#98=LINE($,#616,#140);
#99=LINE($,#617,#141);
#100=LINE($,#620,#142);
#101=LINE($,#622,#143);
#102=LINE($,#624,#144);
#103=LINE($,#628,#145);
#104=LINE($,#632,#146);
#105=LINE($,#634,#147);
#106=LINE($,#635,#148);
#107=LINE($,#637,#149);
#108=LINE($,#638,#150);
#109=LINE($,#646,#151);
#110=LINE($,#649,#152);
#111=LINE($,#652,#153);
#112=LINE($,#654,#154);
#113=LINE($,#655,#155);
#114=LINE($,#661,#156);
#115=LINE($,#664,#157);
#116=LINE($,#666,#158);
#117=LINE($,#667,#159);
#118=LINE($,#670,#160);
#119=LINE($,#672,#161);
#120=LINE($,#673,#162);
#121=LINE($,#675,#163);
#122=LINE($,#677,#164);
#123=VECTOR($,#454,1.6);
#124=VECTOR($,#457,1.6);
#125=VECTOR($,#460,0.585);
#126=VECTOR($,#461,1.6);
#127=VECTOR($,#462,0.585);
#128=VECTOR($,#465,0.483);
#129=VECTOR($,#466,0.635);
#130=VECTOR($,#467,0.483);
#131=VECTOR($,#472,1.6);
#132=VECTOR($,#477,1.6);
#133=VECTOR($,#478,0.483);
#134=VECTOR($,#481,1.6);
#135=VECTOR($,#482,0.635);
#136=VECTOR($,#485,0.483);
#137=VECTOR($,#492,1.6);
#138=VECTOR($,#495,1.6);
#139=VECTOR($,#498,0.585);
#140=VECTOR($,#499,1.6);
#141=VECTOR($,#500,0.585);
#142=VECTOR($,#503,0.483);
#143=VECTOR($,#504,0.635);
#144=VECTOR($,#505,0.483);
#145=VECTOR($,#510,1.6);
#146=VECTOR($,#515,0.483);
#147=VECTOR($,#516,0.635);
#148=VECTOR($,#517,0.483);
#149=VECTOR($,#520,1.6);
#150=VECTOR($,#521,1.6);
#151=VECTOR($,#530,1.54);
#152=VECTOR($,#533,1.54);
#153=VECTOR($,#536,2.104);
#154=VECTOR($,#537,2.104);
#155=VECTOR($,#538,1.54);
#156=VECTOR($,#545,1.54);
#157=VECTOR($,#548,0.515);
#158=VECTOR($,#549,2.184);
#159=VECTOR($,#550,0.515);
#160=VECTOR($,#553,0.515);
#161=VECTOR($,#554,2.184);
#162=VECTOR($,#555,0.515);
#163=VECTOR($,#558,1.54);
#164=VECTOR($,#561,1.54);
#165=CIRCLE($,#413,0.025);
#166=CIRCLE($,#414,0.025);
#167=CIRCLE($,#417,0.025);
#168=CIRCLE($,#419,0.025);
#169=CIRCLE($,#425,0.025);
#170=CIRCLE($,#426,0.025);
#171=CIRCLE($,#429,0.025);
#172=CIRCLE($,#431,0.025);
#173=CIRCLE($,#437,0.04);
#174=CIRCLE($,#438,0.04);
#175=CIRCLE($,#441,0.04);
#176=CIRCLE($,#442,0.04);
#177=VERTEX_POINT($,#566);
#178=VERTEX_POINT($,#567);
#179=VERTEX_POINT($,#569);
#180=VERTEX_POINT($,#571);
#181=VERTEX_POINT($,#575);
#182=VERTEX_POINT($,#577);
#183=VERTEX_POINT($,#581);
#184=VERTEX_POINT($,#583);
#185=VERTEX_POINT($,#585);
#186=VERTEX_POINT($,#589);
#187=VERTEX_POINT($,#593);
#188=VERTEX_POINT($,#597);
#189=VERTEX_POINT($,#604);
#190=VERTEX_POINT($,#605);
#191=VERTEX_POINT($,#607);
#192=VERTEX_POINT($,#609);
#193=VERTEX_POINT($,#613);
#194=VERTEX_POINT($,#615);
#195=VERTEX_POINT($,#619);
#196=VERTEX_POINT($,#621);
#197=VERTEX_POINT($,#623);
#198=VERTEX_POINT($,#627);
#199=VERTEX_POINT($,#631);
#200=VERTEX_POINT($,#633);
#201=VERTEX_POINT($,#642);
#202=VERTEX_POINT($,#643);
#203=VERTEX_POINT($,#645);
#204=VERTEX_POINT($,#647);
#205=VERTEX_POINT($,#651);
#206=VERTEX_POINT($,#653);
#207=VERTEX_POINT($,#657);
#208=VERTEX_POINT($,#659);
#209=VERTEX_POINT($,#663);
#210=VERTEX_POINT($,#665);
#211=VERTEX_POINT($,#669);
#212=VERTEX_POINT($,#671);
#213=EDGE_CURVE($,#177,#178,#165,.T.);
#214=EDGE_CURVE($,#178,#179,#81,.T.);
#215=EDGE_CURVE($,#179,#180,#166,.T.);
#216=EDGE_CURVE($,#180,#177,#82,.T.);
#217=EDGE_CURVE($,#180,#181,#83,.T.);
#218=EDGE_CURVE($,#182,#181,#84,.T.);
#219=EDGE_CURVE($,#177,#182,#85,.T.);
#220=EDGE_CURVE($,#183,#179,#86,.T.);
#221=EDGE_CURVE($,#183,#184,#87,.T.);
#222=EDGE_CURVE($,#185,#184,#88,.T.);
#223=EDGE_CURVE($,#181,#185,#167,.T.);
#224=EDGE_CURVE($,#185,#186,#89,.T.);
#225=EDGE_CURVE($,#186,#182,#168,.T.);
#226=EDGE_CURVE($,#184,#187,#90,.T.);
#227=EDGE_CURVE($,#187,#186,#91,.T.);
#228=EDGE_CURVE($,#188,#183,#92,.T.);
#229=EDGE_CURVE($,#188,#187,#93,.T.);
#230=EDGE_CURVE($,#178,#188,#94,.T.);
#231=EDGE_CURVE($,#189,#190,#169,.T.);
#232=EDGE_CURVE($,#190,#191,#95,.T.);
#233=EDGE_CURVE($,#191,#192,#170,.T.);
#234=EDGE_CURVE($,#192,#189,#96,.T.);
#235=EDGE_CURVE($,#192,#193,#97,.T.);
#236=EDGE_CURVE($,#194,#193,#98,.T.);
#237=EDGE_CURVE($,#189,#194,#99,.T.);
#238=EDGE_CURVE($,#195,#191,#100,.T.);
#239=EDGE_CURVE($,#195,#196,#101,.T.);
#240=EDGE_CURVE($,#197,#196,#102,.T.);
#241=EDGE_CURVE($,#193,#197,#171,.T.);
#242=EDGE_CURVE($,#197,#198,#103,.T.);
#243=EDGE_CURVE($,#198,#194,#172,.T.);
#244=EDGE_CURVE($,#199,#198,#104,.T.);
#245=EDGE_CURVE($,#200,#199,#105,.T.);
#246=EDGE_CURVE($,#190,#200,#106,.T.);
#247=EDGE_CURVE($,#200,#195,#107,.T.);
#248=EDGE_CURVE($,#196,#199,#108,.T.);
#249=EDGE_CURVE($,#201,#202,#173,.T.);
#250=EDGE_CURVE($,#203,#201,#109,.T.);
#251=EDGE_CURVE($,#204,#203,#174,.T.);
#252=EDGE_CURVE($,#204,#202,#110,.T.);
#253=EDGE_CURVE($,#202,#205,#111,.T.);
#254=EDGE_CURVE($,#206,#204,#112,.T.);
#255=EDGE_CURVE($,#206,#205,#113,.T.);
#256=EDGE_CURVE($,#205,#207,#175,.T.);
#257=EDGE_CURVE($,#208,#206,#176,.T.);
#258=EDGE_CURVE($,#207,#208,#114,.T.);
#259=EDGE_CURVE($,#203,#209,#115,.T.);
#260=EDGE_CURVE($,#209,#210,#116,.T.);
#261=EDGE_CURVE($,#210,#208,#117,.T.);
#262=EDGE_CURVE($,#207,#211,#118,.T.);
#263=EDGE_CURVE($,#211,#212,#119,.T.);
#264=EDGE_CURVE($,#212,#201,#120,.T.);
#265=EDGE_CURVE($,#211,#210,#121,.T.);
#266=EDGE_CURVE($,#212,#209,#122,.T.);
#267=ORIENTED_EDGE($,*,*,#213,.T.);
#268=ORIENTED_EDGE($,*,*,#214,.T.);
#269=ORIENTED_EDGE($,*,*,#215,.T.);
#270=ORIENTED_EDGE($,*,*,#216,.T.);
#271=ORIENTED_EDGE($,*,*,#216,.F.);
#272=ORIENTED_EDGE($,*,*,#217,.T.);
#273=ORIENTED_EDGE($,*,*,#218,.F.);
#274=ORIENTED_EDGE($,*,*,#219,.F.);
#275=ORIENTED_EDGE($,*,*,#215,.F.);
#276=ORIENTED_EDGE($,*,*,#220,.F.);
#277=ORIENTED_EDGE($,*,*,#221,.T.);
#278=ORIENTED_EDGE($,*,*,#222,.F.);
#279=ORIENTED_EDGE($,*,*,#223,.F.);
#280=ORIENTED_EDGE($,*,*,#217,.F.);
#281=ORIENTED_EDGE($,*,*,#223,.T.);
#282=ORIENTED_EDGE($,*,*,#224,.T.);
#283=ORIENTED_EDGE($,*,*,#225,.T.);
#284=ORIENTED_EDGE($,*,*,#218,.T.);
#285=ORIENTED_EDGE($,*,*,#224,.F.);
#286=ORIENTED_EDGE($,*,*,#222,.T.);
#287=ORIENTED_EDGE($,*,*,#226,.T.);
#288=ORIENTED_EDGE($,*,*,#227,.T.);
#289=ORIENTED_EDGE($,*,*,#228,.F.);
#290=ORIENTED_EDGE($,*,*,#229,.T.);
#291=ORIENTED_EDGE($,*,*,#226,.F.);
#292=ORIENTED_EDGE($,*,*,#221,.F.);
#293=ORIENTED_EDGE($,*,*,#213,.F.);
#294=ORIENTED_EDGE($,*,*,#219,.T.);
#295=ORIENTED_EDGE($,*,*,#225,.F.);
#296=ORIENTED_EDGE($,*,*,#227,.F.);
#297=ORIENTED_EDGE($,*,*,#229,.F.);
#298=ORIENTED_EDGE($,*,*,#230,.F.);
#299=ORIENTED_EDGE($,*,*,#214,.F.);
#300=ORIENTED_EDGE($,*,*,#230,.T.);
#301=ORIENTED_EDGE($,*,*,#228,.T.);
#302=ORIENTED_EDGE($,*,*,#220,.T.);
#303=ORIENTED_EDGE($,*,*,#231,.T.);
#304=ORIENTED_EDGE($,*,*,#232,.T.);
#305=ORIENTED_EDGE($,*,*,#233,.T.);
#306=ORIENTED_EDGE($,*,*,#234,.T.);
#307=ORIENTED_EDGE($,*,*,#234,.F.);
#308=ORIENTED_EDGE($,*,*,#235,.T.);
#309=ORIENTED_EDGE($,*,*,#236,.F.);
#310=ORIENTED_EDGE($,*,*,#237,.F.);
#311=ORIENTED_EDGE($,*,*,#233,.F.);
#312=ORIENTED_EDGE($,*,*,#238,.F.);
#313=ORIENTED_EDGE($,*,*,#239,.T.);
#314=ORIENTED_EDGE($,*,*,#240,.F.);
#315=ORIENTED_EDGE($,*,*,#241,.F.);
#316=ORIENTED_EDGE($,*,*,#235,.F.);
#317=ORIENTED_EDGE($,*,*,#241,.T.);
#318=ORIENTED_EDGE($,*,*,#242,.T.);
#319=ORIENTED_EDGE($,*,*,#243,.T.);
#320=ORIENTED_EDGE($,*,*,#236,.T.);
#321=ORIENTED_EDGE($,*,*,#231,.F.);
#322=ORIENTED_EDGE($,*,*,#237,.T.);
#323=ORIENTED_EDGE($,*,*,#243,.F.);
#324=ORIENTED_EDGE($,*,*,#244,.F.);
#325=ORIENTED_EDGE($,*,*,#245,.F.);
#326=ORIENTED_EDGE($,*,*,#246,.F.);
#327=ORIENTED_EDGE($,*,*,#247,.F.);
#328=ORIENTED_EDGE($,*,*,#245,.T.);
#329=ORIENTED_EDGE($,*,*,#248,.F.);
#330=ORIENTED_EDGE($,*,*,#239,.F.);
#331=ORIENTED_EDGE($,*,*,#232,.F.);
#332=ORIENTED_EDGE($,*,*,#246,.T.);
#333=ORIENTED_EDGE($,*,*,#247,.T.);
#334=ORIENTED_EDGE($,*,*,#238,.T.);
#335=ORIENTED_EDGE($,*,*,#242,.F.);
#336=ORIENTED_EDGE($,*,*,#240,.T.);
#337=ORIENTED_EDGE($,*,*,#248,.T.);
#338=ORIENTED_EDGE($,*,*,#244,.T.);
#339=ORIENTED_EDGE($,*,*,#249,.F.);
#340=ORIENTED_EDGE($,*,*,#250,.F.);
#341=ORIENTED_EDGE($,*,*,#251,.F.);
#342=ORIENTED_EDGE($,*,*,#252,.T.);
#343=ORIENTED_EDGE($,*,*,#253,.F.);
#344=ORIENTED_EDGE($,*,*,#252,.F.);
#345=ORIENTED_EDGE($,*,*,#254,.F.);
#346=ORIENTED_EDGE($,*,*,#255,.T.);
#347=ORIENTED_EDGE($,*,*,#256,.F.);
#348=ORIENTED_EDGE($,*,*,#255,.F.);
#349=ORIENTED_EDGE($,*,*,#257,.F.);
#350=ORIENTED_EDGE($,*,*,#258,.F.);
#351=ORIENTED_EDGE($,*,*,#257,.T.);
#352=ORIENTED_EDGE($,*,*,#254,.T.);
#353=ORIENTED_EDGE($,*,*,#251,.T.);
#354=ORIENTED_EDGE($,*,*,#259,.T.);
#355=ORIENTED_EDGE($,*,*,#260,.T.);
#356=ORIENTED_EDGE($,*,*,#261,.T.);
#357=ORIENTED_EDGE($,*,*,#256,.T.);
#358=ORIENTED_EDGE($,*,*,#262,.T.);
#359=ORIENTED_EDGE($,*,*,#263,.T.);
#360=ORIENTED_EDGE($,*,*,#264,.T.);
#361=ORIENTED_EDGE($,*,*,#249,.T.);
#362=ORIENTED_EDGE($,*,*,#253,.T.);
#363=ORIENTED_EDGE($,*,*,#258,.T.);
#364=ORIENTED_EDGE($,*,*,#261,.F.);
#365=ORIENTED_EDGE($,*,*,#265,.F.);
#366=ORIENTED_EDGE($,*,*,#262,.F.);
#367=ORIENTED_EDGE($,*,*,#265,.T.);
#368=ORIENTED_EDGE($,*,*,#260,.F.);
#369=ORIENTED_EDGE($,*,*,#266,.F.);
#370=ORIENTED_EDGE($,*,*,#263,.F.);
#371=ORIENTED_EDGE($,*,*,#266,.T.);
#372=ORIENTED_EDGE($,*,*,#259,.F.);
#373=ORIENTED_EDGE($,*,*,#250,.T.);
#374=ORIENTED_EDGE($,*,*,#264,.F.);
#375=CYLINDRICAL_SURFACE($,#412,0.025);
#376=CYLINDRICAL_SURFACE($,#418,0.025);
#377=CYLINDRICAL_SURFACE($,#424,0.025);
#378=CYLINDRICAL_SURFACE($,#430,0.025);
#379=CYLINDRICAL_SURFACE($,#436,0.04);
#380=CYLINDRICAL_SURFACE($,#440,0.04);
#381=ADVANCED_FACE($,(#33),#375,.T.);
#382=ADVANCED_FACE($,(#34),#15,.T.);
#383=ADVANCED_FACE($,(#35),#16,.T.);
#384=ADVANCED_FACE($,(#36),#376,.T.);
#385=ADVANCED_FACE($,(#37),#17,.T.);
#386=ADVANCED_FACE($,(#38),#18,.T.);
#387=ADVANCED_FACE($,(#39),#19,.T.);
#388=ADVANCED_FACE($,(#40),#20,.F.);
#389=ADVANCED_FACE($,(#41),#377,.T.);
#390=ADVANCED_FACE($,(#42),#21,.T.);
#391=ADVANCED_FACE($,(#43),#22,.T.);
#392=ADVANCED_FACE($,(#44),#378,.T.);
#393=ADVANCED_FACE($,(#45),#23,.T.);
#394=ADVANCED_FACE($,(#46),#24,.T.);
#395=ADVANCED_FACE($,(#47),#25,.F.);
#396=ADVANCED_FACE($,(#48),#26,.T.);
#397=ADVANCED_FACE($,(#49),#379,.F.);
#398=ADVANCED_FACE($,(#50),#27,.F.);
#399=ADVANCED_FACE($,(#51),#380,.F.);
#400=ADVANCED_FACE($,(#52),#28,.F.);
#401=ADVANCED_FACE($,(#53),#29,.T.);
#402=ADVANCED_FACE($,(#54),#30,.T.);
#403=ADVANCED_FACE($,(#55),#31,.T.);
#404=ADVANCED_FACE($,(#56),#32,.T.);
#405=CLOSED_SHELL($,(#381,#382,#383,#384,#385,#386,#387,#388));
#406=CLOSED_SHELL($,(#389,#390,#391,#392,#393,#394,#395,#396));
#407=CLOSED_SHELL($,(#397,#398,#399,#400,#401,#402,#403,#404));
#408=MANIFOLD_SOLID_BREP('Termination Pads',#405);
#409=MANIFOLD_SOLID_BREP('Termination Pads',#406);
#410=MANIFOLD_SOLID_BREP('Resistor Element',#407);
#411=AXIS2_PLACEMENT_3D('placement',#564,#448,#449);
#412=AXIS2_PLACEMENT_3D($,#565,#450,#451);
#413=AXIS2_PLACEMENT_3D($,#568,#452,#453);
#414=AXIS2_PLACEMENT_3D($,#572,#455,#456);
#415=AXIS2_PLACEMENT_3D($,#574,#458,#459);
#416=AXIS2_PLACEMENT_3D($,#580,#463,#464);
#417=AXIS2_PLACEMENT_3D($,#587,#468,#469);
#418=AXIS2_PLACEMENT_3D($,#588,#470,#471);
#419=AXIS2_PLACEMENT_3D($,#591,#473,#474);
#420=AXIS2_PLACEMENT_3D($,#592,#475,#476);
#421=AXIS2_PLACEMENT_3D($,#596,#479,#480);
#422=AXIS2_PLACEMENT_3D($,#600,#483,#484);
#423=AXIS2_PLACEMENT_3D($,#602,#486,#487);
#424=AXIS2_PLACEMENT_3D($,#603,#488,#489);
#425=AXIS2_PLACEMENT_3D($,#606,#490,#491);
#426=AXIS2_PLACEMENT_3D($,#610,#493,#494);
#427=AXIS2_PLACEMENT_3D($,#612,#496,#497);
#428=AXIS2_PLACEMENT_3D($,#618,#501,#502);
#429=AXIS2_PLACEMENT_3D($,#625,#506,#507);
#430=AXIS2_PLACEMENT_3D($,#626,#508,#509);
#431=AXIS2_PLACEMENT_3D($,#629,#511,#512);
#432=AXIS2_PLACEMENT_3D($,#630,#513,#514);
#433=AXIS2_PLACEMENT_3D($,#636,#518,#519);
#434=AXIS2_PLACEMENT_3D($,#639,#522,#523);
#435=AXIS2_PLACEMENT_3D($,#640,#524,#525);
#436=AXIS2_PLACEMENT_3D($,#641,#526,#527);
#437=AXIS2_PLACEMENT_3D($,#644,#528,#529);
#438=AXIS2_PLACEMENT_3D($,#648,#531,#532);
#439=AXIS2_PLACEMENT_3D($,#650,#534,#535);
#440=AXIS2_PLACEMENT_3D($,#656,#539,#540);
#441=AXIS2_PLACEMENT_3D($,#658,#541,#542);
#442=AXIS2_PLACEMENT_3D($,#660,#543,#544);
#443=AXIS2_PLACEMENT_3D($,#662,#546,#547);
#444=AXIS2_PLACEMENT_3D($,#668,#551,#552);
#445=AXIS2_PLACEMENT_3D($,#674,#556,#557);
#446=AXIS2_PLACEMENT_3D($,#676,#559,#560);
#447=AXIS2_PLACEMENT_3D($,#678,#562,#563);
#448=DIRECTION('axis',(0.,0.,1.));
#449=DIRECTION('refdir',(1.,0.,0.));
#450=DIRECTION('center_axis',(0.,1.,0.));
#451=DIRECTION('ref_axis',(-0.707106781186548,0.,-0.707106781186547));
#452=DIRECTION('center_axis',(0.,-1.,0.));
#453=DIRECTION('ref_axis',(-0.707106781186548,0.,-0.707106781186547));
#454=DIRECTION($,(0.,-1.,0.));
#455=DIRECTION('center_axis',(0.,1.,0.));
#456=DIRECTION('ref_axis',(-0.707106781186548,0.,-0.707106781186547));
#457=DIRECTION($,(0.,1.,0.));
#458=DIRECTION('center_axis',(-1.,0.,0.));
#459=DIRECTION('ref_axis',(0.,-1.,0.));
#460=DIRECTION($,(0.,0.,1.));
#461=DIRECTION($,(0.,-1.,0.));
#462=DIRECTION($,(0.,0.,1.));
#463=DIRECTION('center_axis',(0.,-1.,0.));
#464=DIRECTION('ref_axis',(1.,0.,0.));
#465=DIRECTION($,(-1.,0.,0.));
#466=DIRECTION($,(0.,0.,1.));
#467=DIRECTION($,(1.,0.,0.));
#468=DIRECTION('center_axis',(0.,1.,0.));
#469=DIRECTION('ref_axis',(-0.707106781186548,0.,0.707106781186548));
#470=DIRECTION('center_axis',(0.,-1.,0.));
#471=DIRECTION('ref_axis',(-0.707106781186548,0.,0.707106781186548));
#472=DIRECTION($,(0.,1.,0.));
#473=DIRECTION('center_axis',(0.,-1.,0.));
#474=DIRECTION('ref_axis',(-0.707106781186548,0.,0.707106781186548));
#475=DIRECTION('center_axis',(0.,0.,1.));
#476=DIRECTION('ref_axis',(1.,0.,0.));
#477=DIRECTION($,(0.,1.,0.));
#478=DIRECTION($,(-1.,0.,0.));
#479=DIRECTION('center_axis',(1.,0.,0.));
#480=DIRECTION('ref_axis',(0.,1.,0.));
#481=DIRECTION($,(0.,-1.,0.));
#482=DIRECTION($,(0.,0.,1.));
#483=DIRECTION('center_axis',(0.,1.,0.));
#484=DIRECTION('ref_axis',(-1.,0.,0.));
#485=DIRECTION($,(1.,0.,0.));
#486=DIRECTION('center_axis',(0.,0.,1.));
#487=DIRECTION('ref_axis',(1.,0.,0.));
#488=DIRECTION('center_axis',(0.,-1.,0.));
#489=DIRECTION('ref_axis',(0.707106781186548,0.,-0.707106781186547));
#490=DIRECTION('center_axis',(0.,1.,0.));
#491=DIRECTION('ref_axis',(0.707106781186548,0.,-0.707106781186547));
#492=DIRECTION($,(0.,1.,0.));
#493=DIRECTION('center_axis',(0.,-1.,0.));
#494=DIRECTION('ref_axis',(0.707106781186548,0.,-0.707106781186547));
#495=DIRECTION($,(0.,-1.,0.));
#496=DIRECTION('center_axis',(1.,0.,0.));
#497=DIRECTION('ref_axis',(0.,1.,0.));
#498=DIRECTION($,(0.,0.,1.));
#499=DIRECTION($,(0.,1.,0.));
#500=DIRECTION($,(0.,0.,1.));
#501=DIRECTION('center_axis',(0.,1.,0.));
#502=DIRECTION('ref_axis',(-1.,0.,0.));
#503=DIRECTION($,(1.,0.,0.));
#504=DIRECTION($,(0.,0.,1.));
#505=DIRECTION($,(-1.,0.,0.));
#506=DIRECTION('center_axis',(0.,-1.,0.));
#507=DIRECTION('ref_axis',(0.707106781186548,0.,0.707106781186548));
#508=DIRECTION('center_axis',(0.,1.,0.));
#509=DIRECTION('ref_axis',(0.707106781186548,0.,0.707106781186548));
#510=DIRECTION($,(0.,-1.,0.));
#511=DIRECTION('center_axis',(0.,1.,0.));
#512=DIRECTION('ref_axis',(0.707106781186548,0.,0.707106781186548));
#513=DIRECTION('center_axis',(0.,-1.,0.));
#514=DIRECTION('ref_axis',(1.,0.,0.));
#515=DIRECTION($,(1.,0.,0.));
#516=DIRECTION($,(0.,0.,1.));
#517=DIRECTION($,(-1.,0.,0.));
#518=DIRECTION('center_axis',(-1.,0.,0.));
#519=DIRECTION('ref_axis',(0.,-1.,0.));
#520=DIRECTION($,(0.,1.,0.));
#521=DIRECTION($,(0.,-1.,0.));
#522=DIRECTION('center_axis',(0.,0.,1.));
#523=DIRECTION('ref_axis',(1.,0.,0.));
#524=DIRECTION('center_axis',(0.,0.,1.));
#525=DIRECTION('ref_axis',(1.,0.,0.));
#526=DIRECTION('center_axis',(0.,-1.,0.));
#527=DIRECTION('ref_axis',(-1.,0.,0.));
#528=DIRECTION('center_axis',(0.,1.,0.));
#529=DIRECTION('ref_axis',(-1.,0.,0.));
#530=DIRECTION($,(0.,-1.,0.));
#531=DIRECTION('center_axis',(0.,-1.,0.));
#532=DIRECTION('ref_axis',(-1.,0.,0.));
#533=DIRECTION($,(0.,-1.,0.));
#534=DIRECTION('center_axis',(1.3191813505527E-016,0.,1.));
#535=DIRECTION('ref_axis',(-1.,0.,1.33226762955019E-016));
#536=DIRECTION($,(1.,0.,-1.3191813505527E-016));
#537=DIRECTION($,(-1.,0.,1.3191813505527E-016));
#538=DIRECTION($,(0.,-1.,0.));
#539=DIRECTION('center_axis',(0.,-1.,0.));
#540=DIRECTION('ref_axis',(0.,0.,1.));
#541=DIRECTION('center_axis',(0.,1.,0.));
#542=DIRECTION('ref_axis',(0.,0.,1.));
#543=DIRECTION('center_axis',(0.,-1.,0.));
#544=DIRECTION('ref_axis',(0.,0.,1.));
#545=DIRECTION($,(0.,1.,0.));
#546=DIRECTION('center_axis',(0.,-1.,0.));
#547=DIRECTION('ref_axis',(0.,0.,-1.));
#548=DIRECTION($,(0.,0.,1.));
#549=DIRECTION($,(1.,0.,0.));
#550=DIRECTION($,(-2.69471607918727E-016,0.,-1.));
#551=DIRECTION('center_axis',(0.,-1.,0.));
#552=DIRECTION('ref_axis',(0.,0.,-1.));
#553=DIRECTION($,(2.69471607918727E-016,0.,1.));
#554=DIRECTION($,(-1.,0.,0.));
#555=DIRECTION($,(0.,0.,-1.));
#556=DIRECTION('center_axis',(1.,0.,-2.69471607918727E-016));
#557=DIRECTION('ref_axis',(-2.66453525910038E-016,0.,-1.));
#558=DIRECTION($,(0.,1.,0.));
#559=DIRECTION('center_axis',(0.,0.,1.));
#560=DIRECTION('ref_axis',(1.,0.,0.));
#561=DIRECTION($,(0.,1.,0.));
#562=DIRECTION('center_axis',(-1.,0.,0.));
#563=DIRECTION('ref_axis',(0.,0.,1.));
#564=CARTESIAN_POINT('',(0.,0.,0.));
#565=CARTESIAN_POINT('Origin',(-1.575,0.4,0.025));
#566=CARTESIAN_POINT('',(-1.6,0.8,0.025));
#567=CARTESIAN_POINT('',(-1.575,0.8,0.));
#568=CARTESIAN_POINT('Origin',(-1.575,0.8,0.025));
#569=CARTESIAN_POINT('',(-1.575,-0.8,0.));
#570=CARTESIAN_POINT($,(-1.575,0.4,0.));
#571=CARTESIAN_POINT('',(-1.6,-0.8,0.025));
#572=CARTESIAN_POINT('Origin',(-1.575,-0.8,0.025));
#573=CARTESIAN_POINT($,(-1.6,0.4,0.025));
#574=CARTESIAN_POINT('Origin',(-1.6,0.8,0.));
#575=CARTESIAN_POINT('',(-1.6,-0.8,0.61));
#576=CARTESIAN_POINT($,(-1.6,-0.8,0.));
#577=CARTESIAN_POINT('',(-1.6,0.8,0.61));
#578=CARTESIAN_POINT($,(-1.6,0.4,0.61));
#579=CARTESIAN_POINT($,(-1.6,0.8,0.));
#580=CARTESIAN_POINT('Origin',(-1.6,-0.8,0.));
#581=CARTESIAN_POINT('',(-1.092,-0.8,0.));
#582=CARTESIAN_POINT($,(-1.092,-0.8,0.));
#583=CARTESIAN_POINT('',(-1.092,-0.8,0.635));
#584=CARTESIAN_POINT($,(-1.092,-0.8,0.));
#585=CARTESIAN_POINT('',(-1.575,-0.8,0.635));
#586=CARTESIAN_POINT($,(-1.092,-0.8,0.635));
#587=CARTESIAN_POINT('Origin',(-1.575,-0.8,0.61));
#588=CARTESIAN_POINT('Origin',(-1.575,0.4,0.61));
#589=CARTESIAN_POINT('',(-1.575,0.8,0.635));
#590=CARTESIAN_POINT($,(-1.575,0.4,0.635));
#591=CARTESIAN_POINT('Origin',(-1.575,0.8,0.61));
#592=CARTESIAN_POINT('Origin',(-1.346,0.,0.635));
#593=CARTESIAN_POINT('',(-1.092,0.8,0.635));
#594=CARTESIAN_POINT($,(-1.092,0.8,0.635));
#595=CARTESIAN_POINT($,(-1.6,0.8,0.635));
#596=CARTESIAN_POINT('Origin',(-1.092,-0.8,0.));
#597=CARTESIAN_POINT('',(-1.092,0.8,0.));
#598=CARTESIAN_POINT($,(-1.092,0.8,0.));
#599=CARTESIAN_POINT($,(-1.092,0.8,0.));
#600=CARTESIAN_POINT('Origin',(-1.092,0.8,0.));
#601=CARTESIAN_POINT($,(-1.6,0.8,0.));
#602=CARTESIAN_POINT('Origin',(-1.346,0.,0.));
#603=CARTESIAN_POINT('Origin',(1.575,-0.4,0.025));
#604=CARTESIAN_POINT('',(1.6,-0.8,0.025));
#605=CARTESIAN_POINT('',(1.575,-0.8,0.));
#606=CARTESIAN_POINT('Origin',(1.575,-0.8,0.025));
#607=CARTESIAN_POINT('',(1.575,0.8,0.));
#608=CARTESIAN_POINT($,(1.575,-0.4,0.));
#609=CARTESIAN_POINT('',(1.6,0.8,0.025));
#610=CARTESIAN_POINT('Origin',(1.575,0.8,0.025));
#611=CARTESIAN_POINT($,(1.6,-0.4,0.025));
#612=CARTESIAN_POINT('Origin',(1.6,-0.8,0.));
#613=CARTESIAN_POINT('',(1.6,0.8,0.61));
#614=CARTESIAN_POINT($,(1.6,0.8,0.));
#615=CARTESIAN_POINT('',(1.6,-0.8,0.61));
#616=CARTESIAN_POINT($,(1.6,-0.4,0.61));
#617=CARTESIAN_POINT($,(1.6,-0.8,0.));
#618=CARTESIAN_POINT('Origin',(1.6,0.8,0.));
#619=CARTESIAN_POINT('',(1.092,0.8,0.));
#620=CARTESIAN_POINT($,(1.092,0.8,0.));
#621=CARTESIAN_POINT('',(1.092,0.8,0.635));
#622=CARTESIAN_POINT($,(1.092,0.8,0.));
#623=CARTESIAN_POINT('',(1.575,0.8,0.635));
#624=CARTESIAN_POINT($,(1.092,0.8,0.635));
#625=CARTESIAN_POINT('Origin',(1.575,0.8,0.61));
#626=CARTESIAN_POINT('Origin',(1.575,-0.4,0.61));
#627=CARTESIAN_POINT('',(1.575,-0.8,0.635));
#628=CARTESIAN_POINT($,(1.575,-0.4,0.635));
#629=CARTESIAN_POINT('Origin',(1.575,-0.8,0.61));
#630=CARTESIAN_POINT('Origin',(1.092,-0.8,0.));
#631=CARTESIAN_POINT('',(1.092,-0.8,0.635));
#632=CARTESIAN_POINT($,(1.6,-0.8,0.635));
#633=CARTESIAN_POINT('',(1.092,-0.8,0.));
#634=CARTESIAN_POINT($,(1.092,-0.8,0.));
#635=CARTESIAN_POINT($,(1.6,-0.8,0.));
#636=CARTESIAN_POINT('Origin',(1.092,0.8,0.));
#637=CARTESIAN_POINT($,(1.092,-0.8,0.));
#638=CARTESIAN_POINT($,(1.092,-0.8,0.635));
#639=CARTESIAN_POINT('Origin',(1.346,0.,0.));
#640=CARTESIAN_POINT('Origin',(1.346,0.,0.635));
#641=CARTESIAN_POINT('Origin',(-1.052,0.77,0.12));
#642=CARTESIAN_POINT('',(-1.092,-0.77,0.12));
#643=CARTESIAN_POINT('',(-1.052,-0.77,0.16));
#644=CARTESIAN_POINT('Origin',(-1.052,-0.77,0.12));
#645=CARTESIAN_POINT('',(-1.092,0.77,0.12));
#646=CARTESIAN_POINT($,(-1.092,0.,0.12));
#647=CARTESIAN_POINT('',(-1.052,0.77,0.16));
#648=CARTESIAN_POINT('Origin',(-1.052,0.77,0.12));
#649=CARTESIAN_POINT($,(-1.052,0.77,0.16));
#650=CARTESIAN_POINT('Origin',(1.052,0.77,0.16));
#651=CARTESIAN_POINT('',(1.052,-0.77,0.16));
#652=CARTESIAN_POINT($,(0.526,-0.77,0.16));
#653=CARTESIAN_POINT('',(1.052,0.77,0.16));
#654=CARTESIAN_POINT($,(0.526,0.77,0.16));
#655=CARTESIAN_POINT($,(1.052,0.77,0.16));
#656=CARTESIAN_POINT('Origin',(1.052,0.77,0.12));
#657=CARTESIAN_POINT('',(1.092,-0.77,0.12));
#658=CARTESIAN_POINT('Origin',(1.052,-0.77,0.12));
#659=CARTESIAN_POINT('',(1.092,0.77,0.12));
#660=CARTESIAN_POINT('Origin',(1.052,0.77,0.12));
#661=CARTESIAN_POINT($,(1.092,0.,0.12));
#662=CARTESIAN_POINT('Origin',(2.01302479687268E-017,0.77,0.3775));
#663=CARTESIAN_POINT('',(-1.092,0.77,0.635));
#664=CARTESIAN_POINT($,(-1.092,0.77,0.12));
#665=CARTESIAN_POINT('',(1.092,0.77,0.635));
#666=CARTESIAN_POINT($,(-1.092,0.77,0.635));
#667=CARTESIAN_POINT($,(1.092,0.77,0.635));
#668=CARTESIAN_POINT('Origin',(2.01302479687268E-017,-0.77,0.3775));
#669=CARTESIAN_POINT('',(1.092,-0.77,0.635));
#670=CARTESIAN_POINT($,(1.092,-0.77,0.635));
#671=CARTESIAN_POINT('',(-1.092,-0.77,0.635));
#672=CARTESIAN_POINT($,(-1.092,-0.77,0.635));
#673=CARTESIAN_POINT($,(-1.092,-0.77,0.12));
#674=CARTESIAN_POINT('Origin',(1.092,0.,0.635));
#675=CARTESIAN_POINT($,(1.092,0.,0.635));
#676=CARTESIAN_POINT('Origin',(-1.092,0.,0.635));
#677=CARTESIAN_POINT($,(-1.092,0.,0.635));
#678=CARTESIAN_POINT('Origin',(-1.092,0.,0.12));
#679=UNCERTAINTY_MEASURE_WITH_UNIT(LENGTH_MEASURE(0.01),#681,
'DISTANCE_ACCURACY_VALUE',
'Maximum model space distance between geometric entities at asserted c
onnectivities');
#680=(
GEOMETRIC_REPRESENTATION_CONTEXT(3)
GLOBAL_UNCERTAINTY_ASSIGNED_CONTEXT((#679))
GLOBAL_UNIT_ASSIGNED_CONTEXT((#681,#684,#682))
REPRESENTATION_CONTEXT('','3D')
);
#681=(
LENGTH_UNIT()
NAMED_UNIT(*)
SI_UNIT(.MILLI.,.METRE.)
);
#682=(
NAMED_UNIT(*)
SI_UNIT($,.STERADIAN.)
SOLID_ANGLE_UNIT()
);
#683=DIMENSIONAL_EXPONENTS(0.,0.,0.,0.,0.,0.,0.);
#684=(
CONVERSION_BASED_UNIT('degree',#686)
NAMED_UNIT(#683)
PLANE_ANGLE_UNIT()
);
#685=(
NAMED_UNIT(*)
PLANE_ANGLE_UNIT()
SI_UNIT($,.RADIAN.)
);
#686=PLANE_ANGLE_MEASURE_WITH_UNIT(PLANE_ANGLE_MEASURE(0.01745329252),#685);
#687=SHAPE_DEFINITION_REPRESENTATION(#688,#689);
#688=PRODUCT_DEFINITION_SHAPE('',$,#691);
#689=SHAPE_REPRESENTATION('',(#411),#680);
#690=PRODUCT_DEFINITION_CONTEXT('3D Mechanical Parts',#694,'design');
#691=PRODUCT_DEFINITION('WSL1206 (High)','WSL1206 (High)',#692,#690);
#692=PRODUCT_DEFINITION_FORMATION('',$,#696);
#693=APPLICATION_PROTOCOL_DEFINITION('international standard',
'automotive_design',2009,#694);
#694=APPLICATION_CONTEXT(
'Core Data for Automotive Mechanical Design Process');
#695=PRODUCT_CONTEXT('3D Mechanical Parts',#694,'mechanical');
#696=PRODUCT('WSL1206 (High)','WSL1206 (High)',$,(#695));
#697=PRESENTATION_STYLE_ASSIGNMENT((#700));
#698=PRESENTATION_STYLE_ASSIGNMENT((#701));
#699=PRESENTATION_STYLE_ASSIGNMENT((#702));
#700=SURFACE_STYLE_USAGE(.BOTH.,#703);
#701=SURFACE_STYLE_USAGE(.BOTH.,#704);
#702=SURFACE_STYLE_USAGE(.BOTH.,#705);
#703=SURFACE_SIDE_STYLE($,(#706));
#704=SURFACE_SIDE_STYLE($,(#707));
#705=SURFACE_SIDE_STYLE($,(#708));
#706=SURFACE_STYLE_FILL_AREA(#709);
#707=SURFACE_STYLE_FILL_AREA(#710);
#708=SURFACE_STYLE_FILL_AREA(#711);
#709=FILL_AREA_STYLE($,(#712));
#710=FILL_AREA_STYLE($,(#713));
#711=FILL_AREA_STYLE($,(#714));
#712=FILL_AREA_STYLE_COLOUR($,#715);
#713=FILL_AREA_STYLE_COLOUR($,#716);
#714=FILL_AREA_STYLE_COLOUR($,#717);
#715=COLOUR_RGB('',0.749019607843137,0.749019607843137,0.749019607843137);
#716=COLOUR_RGB('',0.752941176470588,0.752941176470588,0.752941176470588);
#717=COLOUR_RGB('',0.250980392156863,0.250980392156863,0.250980392156863);
ENDSEC;
END-ISO-10303-21;
