ISO-10303-21;
HEADER;
FILE_DESCRIPTION(('STEP AP214'),'1');
FILE_NAME('12U-1_ATM','2022-02-17T04:38:50',(''),(''),'','','');
FILE_SCHEMA(('AUTOMOTIVE_DESIGN'));
ENDSEC;
DATA;
#1=SHAPE_DEFINITION_REPRESENTATION(#2,#3);
#2=PRODUCT_DEFINITION_SHAPE('',$,#4);
#3=SHAPE_REPRESENTATION('',(#71,#80,#89,#98,#107,#116,#125,#134,#143,#152,#161,#170,#180,#236,#19),#11);
#4=PRODUCT_DEFINITION('design','example product_definition',#6,#5);
#5=PRODUCT_DEFINITION_CONTEXT('3D Mechanical Parts',#10,'design');
#6=PRODUCT_DEFINITION_FORMATION('1.0','first version',#8);
#7=APPLICATION_PROTOCOL_DEFINITION('international standard','automotive_design',2003,#10);
#8=PRODUCT('product','part','',(#9));
#9=PRODUCT_CONTEXT('3D Mechanical Parts',#10,'mechanical');
#10=APPLICATION_CONTEXT('Core Data for Automotive Mechanical Design Process');
#11=(GEOMETRIC_REPRESENTATION_CONTEXT(3) GLOBAL_UNCERTAINTY_ASSIGNED_CONTEXT((#12)) GLOBAL_UNIT_ASSIGNED_CONTEXT((#13,#14,#18)) REPRESENTATION_CONTEXT('ID1','3D'));
#12=UNCERTAINTY_MEASURE_WITH_UNIT(LENGTH_MEASURE(1.E-005),#13,'DISTANCE_ACCURACY_VALUE','Maximum model space distance between geometric entities at asserted connectivities');
#13=(LENGTH_UNIT() NAMED_UNIT(*) SI_UNIT(.MILLI.,.METRE.));
#14=(CONVERSION_BASED_UNIT('degree',#16) NAMED_UNIT(#15) PLANE_ANGLE_UNIT());
#15=DIMENSIONAL_EXPONENTS(0.,0.,0.,0.,0.,0.,0.);
#16=MEASURE_WITH_UNIT(PLANE_ANGLE_MEASURE(0.01745329252),#17);
#17=(NAMED_UNIT(*) PLANE_ANGLE_UNIT() SI_UNIT($,.RADIAN.));
#18=(NAMED_UNIT(*) SI_UNIT($,.STERADIAN.) SOLID_ANGLE_UNIT());
#19=AXIS2_PLACEMENT_3D('',#20,#21,#22);
#20=CARTESIAN_POINT('',(0.0,0.0,0.0));
#21=DIRECTION('',(0.0,0.0,1.0));
#22=DIRECTION('',(1.0,0.0,0.0));
#25=MECHANICAL_DESIGN_GEOMETRIC_PRESENTATION_REPRESENTATION($,(#73,#82,#91,#100,#109,#118,#127,#136,#145,#154,#163,#172,#232,#233,#234,#238,#287,#336,#385,#434,#483),#11);
#26=PRODUCT_CATEGORY_RELATIONSHIP('','',#27,#28);
#27=PRODUCT_CATEGORY('part','');
#28=PRODUCT_RELATED_PRODUCT_CATEGORY('','',(#8));
#34=PRESENTATION_STYLE_ASSIGNMENT((#35,#40));
#35=SURFACE_STYLE_USAGE(.BOTH.,#36);
#36=SURFACE_SIDE_STYLE('',(#37));
#37=SURFACE_STYLE_FILL_AREA(#38);
#38=FILL_AREA_STYLE('',(#39));
#39=FILL_AREA_STYLE_COLOUR('',#41);
#40=CURVE_STYLE('',#42,POSITIVE_LENGTH_MEASURE(0.1),#41);
#41=COLOUR_RGB('Aluminum',0.725,0.725,0.725);
#42=DRAUGHTING_PRE_DEFINED_CURVE_FONT('continuous');
#43=PRESENTATION_STYLE_ASSIGNMENT((#44,#49));
#44=SURFACE_STYLE_USAGE(.BOTH.,#45);
#45=SURFACE_SIDE_STYLE('',(#46));
#46=SURFACE_STYLE_FILL_AREA(#47);
#47=FILL_AREA_STYLE('',(#48));
#48=FILL_AREA_STYLE_COLOUR('',#50);
#49=CURVE_STYLE('',#51,POSITIVE_LENGTH_MEASURE(0.1),#50);
#50=COLOUR_RGB('Black',0.196,0.196,0.196);
#51=DRAUGHTING_PRE_DEFINED_CURVE_FONT('continuous');
#52=PRESENTATION_STYLE_ASSIGNMENT((#53,#58));
#53=SURFACE_STYLE_USAGE(.BOTH.,#54);
#54=SURFACE_SIDE_STYLE('',(#55));
#55=SURFACE_STYLE_FILL_AREA(#56);
#56=FILL_AREA_STYLE('',(#57));
#57=FILL_AREA_STYLE_COLOUR('',#59);
#58=CURVE_STYLE('',#60,POSITIVE_LENGTH_MEASURE(0.1),#59);
#59=COLOUR_RGB('Pin1',0.588,0.588,0.588);
#60=DRAUGHTING_PRE_DEFINED_CURVE_FONT('continuous');
#61=PRESENTATION_STYLE_ASSIGNMENT((#62,#67));
#62=SURFACE_STYLE_USAGE(.BOTH.,#63);
#63=SURFACE_SIDE_STYLE('',(#64));
#64=SURFACE_STYLE_FILL_AREA(#65);
#65=FILL_AREA_STYLE('',(#66));
#66=FILL_AREA_STYLE_COLOUR('',#68);
#67=CURVE_STYLE('',#69,POSITIVE_LENGTH_MEASURE(0.1),#68);
#68=COLOUR_RGB('HeatTab',0.588,0.588,0.588);
#69=DRAUGHTING_PRE_DEFINED_CURVE_FONT('continuous');
#71=MANIFOLD_SOLID_BREP($,#72);
#72=CLOSED_SHELL('',(#74));
#73=STYLED_ITEM('color',(#34),#74);
#74=ADVANCED_FACE('',(),#75,.T.);
#75=SPHERICAL_SURFACE('',#76,0.127);
#76=AXIS2_PLACEMENT_3D('',#77,#78,#79);
#77=CARTESIAN_POINT('',(-0.5,0.52,0.127));
#78=DIRECTION('',(0.,0.,-1.));
#79=DIRECTION('',(-1.,0.,0.));
#80=MANIFOLD_SOLID_BREP($,#81);
#81=CLOSED_SHELL('',(#83));
#82=STYLED_ITEM('color',(#34),#83);
#83=ADVANCED_FACE('',(),#84,.T.);
#84=SPHERICAL_SURFACE('',#85,0.127);
#85=AXIS2_PLACEMENT_3D('',#86,#87,#88);
#86=CARTESIAN_POINT('',(-0.1,0.52,0.127));
#87=DIRECTION('',(0.,0.,-1.));
#88=DIRECTION('',(-1.,0.,0.));
#89=MANIFOLD_SOLID_BREP($,#90);
#90=CLOSED_SHELL('',(#92));
#91=STYLED_ITEM('color',(#34),#92);
#92=ADVANCED_FACE('',(),#93,.T.);
#93=SPHERICAL_SURFACE('',#94,0.127);
#94=AXIS2_PLACEMENT_3D('',#95,#96,#97);
#95=CARTESIAN_POINT('',(0.3,0.52,0.127));
#96=DIRECTION('',(0.,0.,-1.));
#97=DIRECTION('',(-1.,0.,0.));
#98=MANIFOLD_SOLID_BREP($,#99);
#99=CLOSED_SHELL('',(#101));
#100=STYLED_ITEM('color',(#34),#101);
#101=ADVANCED_FACE('',(),#102,.T.);
#102=SPHERICAL_SURFACE('',#103,0.127);
#103=AXIS2_PLACEMENT_3D('',#104,#105,#106);
#104=CARTESIAN_POINT('',(-0.3,0.173,0.127));
#105=DIRECTION('',(0.,0.,-1.));
#106=DIRECTION('',(-1.,0.,0.));
#107=MANIFOLD_SOLID_BREP($,#108);
#108=CLOSED_SHELL('',(#110));
#109=STYLED_ITEM('color',(#34),#110);
#110=ADVANCED_FACE('',(),#111,.T.);
#111=SPHERICAL_SURFACE('',#112,0.127);
#112=AXIS2_PLACEMENT_3D('',#113,#114,#115);
#113=CARTESIAN_POINT('',(0.1,0.173,0.127));
#114=DIRECTION('',(0.,0.,-1.));
#115=DIRECTION('',(-1.,0.,0.));
#116=MANIFOLD_SOLID_BREP($,#117);
#117=CLOSED_SHELL('',(#119));
#118=STYLED_ITEM('color',(#34),#119);
#119=ADVANCED_FACE('',(),#120,.T.);
#120=SPHERICAL_SURFACE('',#121,0.127);
#121=AXIS2_PLACEMENT_3D('',#122,#123,#124);
#122=CARTESIAN_POINT('',(0.5,0.173,0.127));
#123=DIRECTION('',(0.,0.,-1.));
#124=DIRECTION('',(-1.,0.,0.));
#125=MANIFOLD_SOLID_BREP($,#126);
#126=CLOSED_SHELL('',(#128));
#127=STYLED_ITEM('color',(#34),#128);
#128=ADVANCED_FACE('',(),#129,.T.);
#129=SPHERICAL_SURFACE('',#130,0.127);
#130=AXIS2_PLACEMENT_3D('',#131,#132,#133);
#131=CARTESIAN_POINT('',(-0.5,-0.173,0.127));
#132=DIRECTION('',(0.,0.,-1.));
#133=DIRECTION('',(-1.,0.,0.));
#134=MANIFOLD_SOLID_BREP($,#135);
#135=CLOSED_SHELL('',(#137));
#136=STYLED_ITEM('color',(#34),#137);
#137=ADVANCED_FACE('',(),#138,.T.);
#138=SPHERICAL_SURFACE('',#139,0.127);
#139=AXIS2_PLACEMENT_3D('',#140,#141,#142);
#140=CARTESIAN_POINT('',(-0.1,-0.173,0.127));
#141=DIRECTION('',(0.,0.,-1.));
#142=DIRECTION('',(-1.,0.,0.));
#143=MANIFOLD_SOLID_BREP($,#144);
#144=CLOSED_SHELL('',(#146));
#145=STYLED_ITEM('color',(#34),#146);
#146=ADVANCED_FACE('',(),#147,.T.);
#147=SPHERICAL_SURFACE('',#148,0.127);
#148=AXIS2_PLACEMENT_3D('',#149,#150,#151);
#149=CARTESIAN_POINT('',(0.3,-0.173,0.127));
#150=DIRECTION('',(0.,0.,-1.));
#151=DIRECTION('',(-1.,0.,0.));
#152=MANIFOLD_SOLID_BREP($,#153);
#153=CLOSED_SHELL('',(#155));
#154=STYLED_ITEM('color',(#34),#155);
#155=ADVANCED_FACE('',(),#156,.T.);
#156=SPHERICAL_SURFACE('',#157,0.127);
#157=AXIS2_PLACEMENT_3D('',#158,#159,#160);
#158=CARTESIAN_POINT('',(-0.3,-0.52,0.127));
#159=DIRECTION('',(0.,0.,-1.));
#160=DIRECTION('',(-1.,0.,0.));
#161=MANIFOLD_SOLID_BREP($,#162);
#162=CLOSED_SHELL('',(#164));
#163=STYLED_ITEM('color',(#34),#164);
#164=ADVANCED_FACE('',(),#165,.T.);
#165=SPHERICAL_SURFACE('',#166,0.127);
#166=AXIS2_PLACEMENT_3D('',#167,#168,#169);
#167=CARTESIAN_POINT('',(0.1,-0.52,0.127));
#168=DIRECTION('',(0.,0.,-1.));
#169=DIRECTION('',(-1.,0.,0.));
#170=MANIFOLD_SOLID_BREP($,#171);
#171=CLOSED_SHELL('',(#173));
#172=STYLED_ITEM('color',(#34),#173);
#173=ADVANCED_FACE('',(),#174,.T.);
#174=SPHERICAL_SURFACE('',#175,0.127);
#175=AXIS2_PLACEMENT_3D('',#176,#177,#178);
#176=CARTESIAN_POINT('',(0.5,-0.52,0.127));
#177=DIRECTION('',(0.,0.,-1.));
#178=DIRECTION('',(-1.,0.,0.));
#180=MANIFOLD_SOLID_BREP($,#181);
#181=CLOSED_SHELL('',(#182,#183,#184));
#182=ADVANCED_FACE($,(#188,#187),#205,.T.);
#183=ADVANCED_FACE($,(#189),#185,.F.);
#184=ADVANCED_FACE($,(#190),#186,.T.);
#185=PLANE($,#210);
#186=PLANE($,#211);
#187=FACE_BOUND($,#192,.T.);
#188=FACE_OUTER_BOUND($,#191,.T.);
#189=FACE_OUTER_BOUND($,#193,.T.);
#190=FACE_OUTER_BOUND($,#194,.T.);
#191=EDGE_LOOP($,(#201));
#192=EDGE_LOOP($,(#202));
#193=EDGE_LOOP($,(#203));
#194=EDGE_LOOP($,(#204));
#195=CIRCLE($,#208,0.0350749997);
#196=CIRCLE($,#209,0.0350749997);
#197=VERTEX_POINT('',#226);
#198=VERTEX_POINT('',#228);
#199=EDGE_CURVE($,#197,#197,#195,.T.);
#200=EDGE_CURVE($,#198,#198,#196,.T.);
#201=ORIENTED_EDGE($,*,*,#199,.F.);
#202=ORIENTED_EDGE($,*,*,#200,.F.);
#203=ORIENTED_EDGE($,*,*,#200,.T.);
#204=ORIENTED_EDGE($,*,*,#199,.T.);
#205=CYLINDRICAL_SURFACE($,#207,0.0350749997);
#206=AXIS2_PLACEMENT_3D('placement',#224,#212,#213);
#207=AXIS2_PLACEMENT_3D($,#225,#214,#215);
#208=AXIS2_PLACEMENT_3D($,#227,#216,#217);
#209=AXIS2_PLACEMENT_3D($,#229,#218,#219);
#210=AXIS2_PLACEMENT_3D($,#230,#220,#221);
#211=AXIS2_PLACEMENT_3D($,#231,#222,#223);
#212=DIRECTION('axis',(0.,1.,0.));
#213=DIRECTION('refdir',(1.,0.,0.));
#214=DIRECTION('',(0.,0.,1.));
#215=DIRECTION('',(1.,0.,0.));
#216=DIRECTION('',(0.,0.,1.));
#217=DIRECTION('',(1.,0.,0.));
#218=DIRECTION('',(0.,0.,-1.));
#219=DIRECTION('',(1.,0.,0.));
#220=DIRECTION('',(0.,0.,1.));
#221=DIRECTION('',(0.,1.,0.));
#222=DIRECTION('',(0.,0.,1.));
#223=DIRECTION('',(0.,1.,0.));
#224=CARTESIAN_POINT('',(0.,0.,0.));
#225=CARTESIAN_POINT('',(-0.561,0.637,0.538));
#226=CARTESIAN_POINT('',(-0.596,0.637,0.541));
#227=CARTESIAN_POINT('',(-0.561,0.637,0.541));
#228=CARTESIAN_POINT('',(-0.596,0.637,0.538));
#229=CARTESIAN_POINT('',(-0.561,0.637,0.538));
#230=CARTESIAN_POINT('',(-0.561,0.637,0.538));
#231=CARTESIAN_POINT('',(-0.561,0.637,0.541));
#232=STYLED_ITEM('color',(#52),#182);
#233=STYLED_ITEM('color',(#52),#183);
#234=STYLED_ITEM('color',(#52),#184);
#236=MANIFOLD_SOLID_BREP($,#237);
#237=CLOSED_SHELL('',(#239,#288,#337,#386,#435,#484));
#238=STYLED_ITEM('',(#43),#239);
#239=ADVANCED_FACE('',(#245),#240,.T.);
#240=PLANE('',#241);
#241=AXIS2_PLACEMENT_3D('',#242,#243,#244);
#242=CARTESIAN_POINT('',(-0.701,-0.777,0.253));
#243=DIRECTION('',(0.0,-1.0,0.0));
#244=DIRECTION('',(0.,0.,1.));
#245=FACE_OUTER_BOUND('',#246,.T.);
#246=EDGE_LOOP('',(#247,#257,#267,#277));
#250=CARTESIAN_POINT('',(0.701,-0.777,0.253));
#249=VERTEX_POINT('',#250);
#252=CARTESIAN_POINT('',(-0.701,-0.777,0.253));
#251=VERTEX_POINT('',#252);
#248=EDGE_CURVE('',#249,#251,#253,.T.);
#253=LINE('',#250,#255);
#255=VECTOR('',#256,1.402999988);
#256=DIRECTION('',(-1.0,0.0,0.0));
#247=ORIENTED_EDGE('',*,*,#248,.F.);
#260=CARTESIAN_POINT('',(0.701,-0.777,0.538));
#259=VERTEX_POINT('',#260);
#258=EDGE_CURVE('',#259,#249,#263,.T.);
#263=LINE('',#260,#265);
#265=VECTOR('',#266,0.2849999400066);
#266=DIRECTION('',(0.0,0.0,-1.0));
#257=ORIENTED_EDGE('',*,*,#258,.F.);
#270=CARTESIAN_POINT('',(-0.701,-0.777,0.538));
#269=VERTEX_POINT('',#270);
#268=EDGE_CURVE('',#269,#259,#273,.T.);
#273=LINE('',#270,#275);
#275=VECTOR('',#276,1.402999988);
#276=DIRECTION('',(1.0,0.0,0.0));
#267=ORIENTED_EDGE('',*,*,#268,.F.);
#278=EDGE_CURVE('',#251,#269,#283,.T.);
#283=LINE('',#252,#285);
#285=VECTOR('',#286,0.2849999400066);
#286=DIRECTION('',(0.0,0.0,1.0));
#277=ORIENTED_EDGE('',*,*,#278,.F.);
#287=STYLED_ITEM('',(#43),#288);
#288=ADVANCED_FACE('',(#294),#289,.T.);
#289=PLANE('',#290);
#290=AXIS2_PLACEMENT_3D('',#291,#292,#293);
#291=CARTESIAN_POINT('',(0.701,-0.777,0.253));
#292=DIRECTION('',(1.0,0.0,0.0));
#293=DIRECTION('',(0.,0.,1.));
#294=FACE_OUTER_BOUND('',#295,.T.);
#295=EDGE_LOOP('',(#296,#306,#316,#326));
#299=CARTESIAN_POINT('',(0.701,0.777,0.253));
#298=VERTEX_POINT('',#299);
#297=EDGE_CURVE('',#298,#249,#302,.T.);
#302=LINE('',#299,#304);
#304=VECTOR('',#305,1.554999938);
#305=DIRECTION('',(0.0,-1.0,0.0));
#296=ORIENTED_EDGE('',*,*,#297,.F.);
#309=CARTESIAN_POINT('',(0.701,0.777,0.538));
#308=VERTEX_POINT('',#309);
#307=EDGE_CURVE('',#308,#298,#312,.T.);
#312=LINE('',#309,#314);
#314=VECTOR('',#315,0.2849999400066);
#315=DIRECTION('',(0.0,0.0,-1.0));
#306=ORIENTED_EDGE('',*,*,#307,.F.);
#317=EDGE_CURVE('',#259,#308,#322,.T.);
#322=LINE('',#260,#324);
#324=VECTOR('',#325,1.554999938);
#325=DIRECTION('',(0.0,1.0,0.0));
#316=ORIENTED_EDGE('',*,*,#317,.F.);
#326=ORIENTED_EDGE('',*,*,#258,.T.);
#336=STYLED_ITEM('',(#43),#337);
#337=ADVANCED_FACE('',(#343),#338,.T.);
#338=PLANE('',#339);
#339=AXIS2_PLACEMENT_3D('',#340,#341,#342);
#340=CARTESIAN_POINT('',(0.701,0.777,0.253));
#341=DIRECTION('',(0.0,1.0,0.0));
#342=DIRECTION('',(0.,0.,1.));
#343=FACE_OUTER_BOUND('',#344,.T.);
#344=EDGE_LOOP('',(#345,#355,#365,#375));
#348=CARTESIAN_POINT('',(-0.701,0.777,0.253));
#347=VERTEX_POINT('',#348);
#346=EDGE_CURVE('',#347,#298,#351,.T.);
#351=LINE('',#348,#353);
#353=VECTOR('',#354,1.402999988);
#354=DIRECTION('',(1.0,0.0,0.0));
#345=ORIENTED_EDGE('',*,*,#346,.F.);
#358=CARTESIAN_POINT('',(-0.701,0.777,0.538));
#357=VERTEX_POINT('',#358);
#356=EDGE_CURVE('',#357,#347,#361,.T.);
#361=LINE('',#358,#363);
#363=VECTOR('',#364,0.2849999400066);
#364=DIRECTION('',(0.0,0.0,-1.0));
#355=ORIENTED_EDGE('',*,*,#356,.F.);
#366=EDGE_CURVE('',#308,#357,#371,.T.);
#371=LINE('',#309,#373);
#373=VECTOR('',#374,1.402999988);
#374=DIRECTION('',(-1.0,0.0,0.0));
#365=ORIENTED_EDGE('',*,*,#366,.F.);
#375=ORIENTED_EDGE('',*,*,#307,.T.);
#385=STYLED_ITEM('',(#43),#386);
#386=ADVANCED_FACE('',(#392),#387,.T.);
#387=PLANE('',#388);
#388=AXIS2_PLACEMENT_3D('',#389,#390,#391);
#389=CARTESIAN_POINT('',(-0.701,0.777,0.253));
#390=DIRECTION('',(-1.0,0.0,0.0));
#391=DIRECTION('',(0.,0.,1.));
#392=FACE_OUTER_BOUND('',#393,.T.);
#393=EDGE_LOOP('',(#394,#404,#414,#424));
#395=EDGE_CURVE('',#251,#347,#400,.T.);
#400=LINE('',#252,#402);
#402=VECTOR('',#403,1.554999938);
#403=DIRECTION('',(0.0,1.0,0.0));
#394=ORIENTED_EDGE('',*,*,#395,.F.);
#404=ORIENTED_EDGE('',*,*,#278,.T.);
#415=EDGE_CURVE('',#357,#269,#420,.T.);
#420=LINE('',#358,#422);
#422=VECTOR('',#423,1.554999938);
#423=DIRECTION('',(0.0,-1.0,0.0));
#414=ORIENTED_EDGE('',*,*,#415,.F.);
#424=ORIENTED_EDGE('',*,*,#356,.T.);
#434=STYLED_ITEM('',(#43),#435);
#435=ADVANCED_FACE('',(#441),#436,.T.);
#436=PLANE('',#437);
#437=AXIS2_PLACEMENT_3D('',#438,#439,#440);
#438=CARTESIAN_POINT('',(-0.701,0.777,0.253));
#439=DIRECTION('',(0.0,0.0,-1.0));
#440=DIRECTION('',(0.,1.,0.));
#441=FACE_OUTER_BOUND('',#442,.T.);
#442=EDGE_LOOP('',(#443,#453,#463,#473));
#443=ORIENTED_EDGE('',*,*,#346,.T.);
#453=ORIENTED_EDGE('',*,*,#297,.T.);
#463=ORIENTED_EDGE('',*,*,#248,.T.);
#473=ORIENTED_EDGE('',*,*,#395,.T.);
#483=STYLED_ITEM('',(#43),#484);
#484=ADVANCED_FACE('',(#490),#485,.T.);
#485=PLANE('',#486);
#486=AXIS2_PLACEMENT_3D('',#487,#488,#489);
#487=CARTESIAN_POINT('',(-0.701,-0.777,0.538));
#488=DIRECTION('',(0.0,0.0,1.0));
#489=DIRECTION('',(0.,1.,0.));
#490=FACE_OUTER_BOUND('',#491,.T.);
#491=EDGE_LOOP('',(#492,#502,#512,#522));
#492=ORIENTED_EDGE('',*,*,#268,.T.);
#502=ORIENTED_EDGE('',*,*,#317,.T.);
#512=ORIENTED_EDGE('',*,*,#366,.T.);
#522=ORIENTED_EDGE('',*,*,#415,.T.);
ENDSEC;
END-ISO-10303-21;
