ISO-10303-21;
HEADER;
FILE_DESCRIPTION(('CAx-IF Rec.Pracs.---Model Styling and Organization---1.5---2016-08-15','CAx-IF Rec.Pracs.---Geometric and Assembly Validation Properties---4.4---2016-08-17','CAx-IF Rec.Pracs.---User Defined Attributes---1.5---2016-08-15','CAx-IF Rec.Pracs.---External References---2.1---2005-01-19'),'2;1');
FILE_NAME('914438.1.1.step','2025-05-16T23:24:04',('Unspecified'),('Unspecified'),'CAD Exchanger 3.10.2 (cadexchanger.com)','Unspecified','');
FILE_SCHEMA(('AUTOMOTIVE_DESIGN { 1 0 10303 214 1 1 1 1 }'));
ENDSEC;
DATA;
#1=APPLICATION_CONTEXT('core data for automotive mechanical design processes');
#2=APPLICATION_PROTOCOL_DEFINITION('international standard','automotive_design',2000,#1);
#3=PRODUCT_CONTEXT('',#1,'mechanical');
#4=PRODUCT('ASSEMBLY','ASSEMBLY',$,(#3));
#5=PRODUCT_DEFINITION_FORMATION('',$,#4);
#6=PRODUCT_DEFINITION_CONTEXT('part definition',#1,'design');
#7=PRODUCT_DEFINITION('design',$,#5,#6);
#8=PRODUCT_DEFINITION_SHAPE('',$,#7);
#9=AXIS2_PLACEMENT_3D('',#10,#11,#12);
#10=CARTESIAN_POINT('',(0.0,0.0,0.0));
#11=DIRECTION('',(0.0,0.0,1.0));
#12=DIRECTION('',(1.0,0.0,0.0));
#13=AXIS2_PLACEMENT_3D('',#14,#15,#16);
#14=CARTESIAN_POINT('',(1.75,0.0,0.0));
#15=DIRECTION('',(0.0,0.0,1.0));
#16=DIRECTION('',(1.0,0.0,0.0));
#17=AXIS2_PLACEMENT_3D('',#18,#19,#20);
#18=CARTESIAN_POINT('',(0.0,0.0,-10.0));
#19=DIRECTION('',(0.0,0.0,1.0));
#20=DIRECTION('',(1.0,0.0,0.0));
#21=AXIS2_PLACEMENT_3D('',#22,#23,#24);
#22=CARTESIAN_POINT('',(3.5,0.0,-7.0));
#23=DIRECTION('',(0.0,0.0,1.0));
#24=DIRECTION('',(1.0,0.0,0.0));
#25=(GEOMETRIC_REPRESENTATION_CONTEXT(3)GLOBAL_UNIT_ASSIGNED_CONTEXT((#26,#27,#28))REPRESENTATION_CONTEXT('',''));
#26=(LENGTH_UNIT()NAMED_UNIT(*)SI_UNIT(.MILLI.,.METRE.));
#27=(NAMED_UNIT(*)PLANE_ANGLE_UNIT()SI_UNIT($,.RADIAN.));
#28=(NAMED_UNIT(*)SI_UNIT($,.STERADIAN.)SOLID_ANGLE_UNIT());
#29=SHAPE_REPRESENTATION('',(#9,#13,#17,#21),#25);
#30=SHAPE_DEFINITION_REPRESENTATION(#8,#29);
#31=PRODUCT_RELATED_PRODUCT_CATEGORY('assembly',$,(#4));
#32=MANIFOLD_SOLID_BREP('',#33);
#33=CLOSED_SHELL('',(#34,#67,#76));
#34=ADVANCED_FACE('',(#35),#62,.T.);
#35=FACE_BOUND('',#36,.T.);
#36=EDGE_LOOP('',(#37,#46,#54,#61));
#37=ORIENTED_EDGE('',*,*,#38,.T.);
#38=EDGE_CURVE('',#39,#39,#41,.F.);
#39=VERTEX_POINT('',#40);
#40=CARTESIAN_POINT('',(4.25,-1.040949779E-15,13.0));
#41=CIRCLE('',#42,4.25);
#42=AXIS2_PLACEMENT_3D('',#43,#44,#45);
#43=CARTESIAN_POINT('',(0.0,0.0,13.0));
#44=DIRECTION('',(0.0,0.0,1.0));
#45=DIRECTION('',(1.0,0.0,0.0));
#46=ORIENTED_EDGE('',*,*,#47,.T.);
#47=EDGE_CURVE('',#39,#48,#50,.F.);
#48=VERTEX_POINT('',#49);
#49=CARTESIAN_POINT('',(4.25,-1.040949779E-15,0.0));
#50=LINE('',#51,#52);
#51=CARTESIAN_POINT('',(4.25,-1.040949779E-15,0.0));
#52=VECTOR('',#53,1.0);
#53=DIRECTION('',(0.0,0.0,1.0));
#54=ORIENTED_EDGE('',*,*,#55,.T.);
#55=EDGE_CURVE('',#48,#48,#56,.T.);
#56=CIRCLE('',#57,4.25);
#57=AXIS2_PLACEMENT_3D('',#58,#59,#60);
#58=CARTESIAN_POINT('',(0.0,0.0,0.0));
#59=DIRECTION('',(0.0,0.0,1.0));
#60=DIRECTION('',(1.0,0.0,0.0));
#61=ORIENTED_EDGE('',*,*,#47,.F.);
#62=CYLINDRICAL_SURFACE('',#63,4.25);
#63=AXIS2_PLACEMENT_3D('',#64,#65,#66);
#64=CARTESIAN_POINT('',(0.0,0.0,0.0));
#65=DIRECTION('',(0.0,0.0,1.0));
#66=DIRECTION('',(1.0,0.0,0.0));
#67=ADVANCED_FACE('',(#68),#71,.T.);
#68=FACE_BOUND('',#69,.T.);
#69=EDGE_LOOP('',(#70));
#70=ORIENTED_EDGE('',*,*,#38,.F.);
#71=PLANE('',#72);
#72=AXIS2_PLACEMENT_3D('',#73,#74,#75);
#73=CARTESIAN_POINT('',(0.0,0.0,13.0));
#74=DIRECTION('',(0.0,0.0,1.0));
#75=DIRECTION('',(1.0,0.0,0.0));
#76=ADVANCED_FACE('',(#77),#80,.F.);
#77=FACE_BOUND('',#78,.T.);
#78=EDGE_LOOP('',(#79));
#79=ORIENTED_EDGE('',*,*,#55,.F.);
#80=PLANE('',#81);
#81=AXIS2_PLACEMENT_3D('',#82,#83,#84);
#82=CARTESIAN_POINT('',(0.0,0.0,0.0));
#83=DIRECTION('',(0.0,0.0,1.0));
#84=DIRECTION('',(1.0,0.0,0.0));
#85=(GEOMETRIC_REPRESENTATION_CONTEXT(3)GLOBAL_UNCERTAINTY_ASSIGNED_CONTEXT((#86))GLOBAL_UNIT_ASSIGNED_CONTEXT((#26,#27,#28))REPRESENTATION_CONTEXT('',''));
#86=UNCERTAINTY_MEASURE_WITH_UNIT(LENGTH_MEASURE(1.0E-07),#26,'','maximum tolerance');
#87=ADVANCED_BREP_SHAPE_REPRESENTATION('',(#32,#9),#85);
#88=(REPRESENTATION_RELATIONSHIP('',$,#87,#29)REPRESENTATION_RELATIONSHIP_WITH_TRANSFORMATION(#89)SHAPE_REPRESENTATION_RELATIONSHIP());
#89=ITEM_DEFINED_TRANSFORMATION('',$,#9,#13);
#90=PRODUCT('SimpleBody','SimpleBody',$,(#3));
#91=PRODUCT_DEFINITION_FORMATION('',$,#90);
#92=PRODUCT_DEFINITION('design',$,#91,#6);
#93=NEXT_ASSEMBLY_USAGE_OCCURRENCE('instance_1','','',#7,#92,$);
#94=PRODUCT_DEFINITION_SHAPE('',$,#93);
#95=CONTEXT_DEPENDENT_SHAPE_REPRESENTATION(#88,#94);
#96=PRODUCT_DEFINITION_SHAPE('',$,#92);
#97=SHAPE_DEFINITION_REPRESENTATION(#96,#87);
#98=PRODUCT_RELATED_PRODUCT_CATEGORY('part',$,(#90));
#99=STYLED_ITEM('',(#100),#32);
#100=PRESENTATION_STYLE_ASSIGNMENT((#101));
#101=SURFACE_STYLE_USAGE(.BOTH.,#102);
#102=SURFACE_SIDE_STYLE('',(#103));
#103=SURFACE_STYLE_FILL_AREA(#104);
#104=FILL_AREA_STYLE('',(#106));
#105=COLOUR_RGB('',0.300000012,0.300000012,0.300000012);
#106=FILL_AREA_STYLE_COLOUR('',#105);
#107=MECHANICAL_DESIGN_GEOMETRIC_PRESENTATION_REPRESENTATION('',(#99),#85);
#108=MANIFOLD_SOLID_BREP('',#109);
#109=CLOSED_SHELL('',(#110,#143,#152));
#110=ADVANCED_FACE('',(#111),#138,.T.);
#111=FACE_BOUND('',#112,.T.);
#112=EDGE_LOOP('',(#113,#122,#130,#137));
#113=ORIENTED_EDGE('',*,*,#114,.T.);
#114=EDGE_CURVE('',#115,#115,#117,.F.);
#115=VERTEX_POINT('',#116);
#116=CARTESIAN_POINT('',(0.3,-7.347880795E-17,10.0));
#117=CIRCLE('',#118,0.3);
#118=AXIS2_PLACEMENT_3D('',#119,#120,#121);
#119=CARTESIAN_POINT('',(0.0,0.0,10.0));
#120=DIRECTION('',(0.0,0.0,1.0));
#121=DIRECTION('',(1.0,0.0,0.0));
#122=ORIENTED_EDGE('',*,*,#123,.T.);
#123=EDGE_CURVE('',#115,#124,#126,.F.);
#124=VERTEX_POINT('',#125);
#125=CARTESIAN_POINT('',(0.3,-7.347880795E-17,0.0));
#126=LINE('',#127,#128);
#127=CARTESIAN_POINT('',(0.3,-7.347880795E-17,0.0));
#128=VECTOR('',#129,1.0);
#129=DIRECTION('',(0.0,0.0,1.0));
#130=ORIENTED_EDGE('',*,*,#131,.T.);
#131=EDGE_CURVE('',#124,#124,#132,.T.);
#132=CIRCLE('',#133,0.3);
#133=AXIS2_PLACEMENT_3D('',#134,#135,#136);
#134=CARTESIAN_POINT('',(0.0,0.0,0.0));
#135=DIRECTION('',(0.0,0.0,1.0));
#136=DIRECTION('',(1.0,0.0,0.0));
#137=ORIENTED_EDGE('',*,*,#123,.F.);
#138=CYLINDRICAL_SURFACE('',#139,0.3);
#139=AXIS2_PLACEMENT_3D('',#140,#141,#142);
#140=CARTESIAN_POINT('',(0.0,0.0,0.0));
#141=DIRECTION('',(0.0,0.0,1.0));
#142=DIRECTION('',(1.0,0.0,0.0));
#143=ADVANCED_FACE('',(#144),#147,.T.);
#144=FACE_BOUND('',#145,.T.);
#145=EDGE_LOOP('',(#146));
#146=ORIENTED_EDGE('',*,*,#114,.F.);
#147=PLANE('',#148);
#148=AXIS2_PLACEMENT_3D('',#149,#150,#151);
#149=CARTESIAN_POINT('',(0.0,0.0,10.0));
#150=DIRECTION('',(0.0,0.0,1.0));
#151=DIRECTION('',(1.0,0.0,0.0));
#152=ADVANCED_FACE('',(#153),#156,.F.);
#153=FACE_BOUND('',#154,.T.);
#154=EDGE_LOOP('',(#155));
#155=ORIENTED_EDGE('',*,*,#131,.F.);
#156=PLANE('',#157);
#157=AXIS2_PLACEMENT_3D('',#158,#159,#160);
#158=CARTESIAN_POINT('',(0.0,0.0,0.0));
#159=DIRECTION('',(0.0,0.0,1.0));
#160=DIRECTION('',(1.0,0.0,0.0));
#161=(GEOMETRIC_REPRESENTATION_CONTEXT(3)GLOBAL_UNCERTAINTY_ASSIGNED_CONTEXT((#162))GLOBAL_UNIT_ASSIGNED_CONTEXT((#26,#27,#28))REPRESENTATION_CONTEXT('',''));
#162=UNCERTAINTY_MEASURE_WITH_UNIT(LENGTH_MEASURE(1.0E-07),#26,'','maximum tolerance');
#163=ADVANCED_BREP_SHAPE_REPRESENTATION('',(#108,#9),#161);
#164=(REPRESENTATION_RELATIONSHIP('',$,#163,#29)REPRESENTATION_RELATIONSHIP_WITH_TRANSFORMATION(#165)SHAPE_REPRESENTATION_RELATIONSHIP());
#165=ITEM_DEFINED_TRANSFORMATION('',$,#9,#17);
#166=PRODUCT('Pin1','Pin1',$,(#3));
#167=PRODUCT_DEFINITION_FORMATION('',$,#166);
#168=PRODUCT_DEFINITION('design',$,#167,#6);
#169=NEXT_ASSEMBLY_USAGE_OCCURRENCE('instance_2','','',#7,#168,$);
#170=PRODUCT_DEFINITION_SHAPE('',$,#169);
#171=CONTEXT_DEPENDENT_SHAPE_REPRESENTATION(#164,#170);
#172=PRODUCT_DEFINITION_SHAPE('',$,#168);
#173=SHAPE_DEFINITION_REPRESENTATION(#172,#163);
#174=PRODUCT_RELATED_PRODUCT_CATEGORY('part',$,(#166));
#175=STYLED_ITEM('',(#176),#108);
#176=PRESENTATION_STYLE_ASSIGNMENT((#177));
#177=SURFACE_STYLE_USAGE(.BOTH.,#178);
#178=SURFACE_SIDE_STYLE('',(#179));
#179=SURFACE_STYLE_FILL_AREA(#180);
#180=FILL_AREA_STYLE('',(#182));
#181=COLOUR_RGB('',0.734000027,0.773000002,0.796999991);
#182=FILL_AREA_STYLE_COLOUR('',#181);
#183=MECHANICAL_DESIGN_GEOMETRIC_PRESENTATION_REPRESENTATION('',(#175),#161);
#184=MANIFOLD_SOLID_BREP('',#185);
#185=CLOSED_SHELL('',(#186,#219,#228));
#186=ADVANCED_FACE('',(#187),#214,.T.);
#187=FACE_BOUND('',#188,.T.);
#188=EDGE_LOOP('',(#189,#198,#206,#213));
#189=ORIENTED_EDGE('',*,*,#190,.T.);
#190=EDGE_CURVE('',#191,#191,#193,.F.);
#191=VERTEX_POINT('',#192);
#192=CARTESIAN_POINT('',(0.3,-7.347880795E-17,7.0));
#193=CIRCLE('',#194,0.3);
#194=AXIS2_PLACEMENT_3D('',#195,#196,#197);
#195=CARTESIAN_POINT('',(0.0,0.0,7.0));
#196=DIRECTION('',(0.0,0.0,1.0));
#197=DIRECTION('',(1.0,0.0,0.0));
#198=ORIENTED_EDGE('',*,*,#199,.T.);
#199=EDGE_CURVE('',#191,#200,#202,.F.);
#200=VERTEX_POINT('',#201);
#201=CARTESIAN_POINT('',(0.3,-7.347880795E-17,0.0));
#202=LINE('',#203,#204);
#203=CARTESIAN_POINT('',(0.3,-7.347880795E-17,0.0));
#204=VECTOR('',#205,1.0);
#205=DIRECTION('',(0.0,0.0,1.0));
#206=ORIENTED_EDGE('',*,*,#207,.T.);
#207=EDGE_CURVE('',#200,#200,#208,.T.);
#208=CIRCLE('',#209,0.3);
#209=AXIS2_PLACEMENT_3D('',#210,#211,#212);
#210=CARTESIAN_POINT('',(0.0,0.0,0.0));
#211=DIRECTION('',(0.0,0.0,1.0));
#212=DIRECTION('',(1.0,0.0,0.0));
#213=ORIENTED_EDGE('',*,*,#199,.F.);
#214=CYLINDRICAL_SURFACE('',#215,0.3);
#215=AXIS2_PLACEMENT_3D('',#216,#217,#218);
#216=CARTESIAN_POINT('',(0.0,0.0,0.0));
#217=DIRECTION('',(0.0,0.0,1.0));
#218=DIRECTION('',(1.0,0.0,0.0));
#219=ADVANCED_FACE('',(#220),#223,.T.);
#220=FACE_BOUND('',#221,.T.);
#221=EDGE_LOOP('',(#222));
#222=ORIENTED_EDGE('',*,*,#190,.F.);
#223=PLANE('',#224);
#224=AXIS2_PLACEMENT_3D('',#225,#226,#227);
#225=CARTESIAN_POINT('',(0.0,0.0,7.0));
#226=DIRECTION('',(0.0,0.0,1.0));
#227=DIRECTION('',(1.0,0.0,0.0));
#228=ADVANCED_FACE('',(#229),#232,.F.);
#229=FACE_BOUND('',#230,.T.);
#230=EDGE_LOOP('',(#231));
#231=ORIENTED_EDGE('',*,*,#207,.F.);
#232=PLANE('',#233);
#233=AXIS2_PLACEMENT_3D('',#234,#235,#236);
#234=CARTESIAN_POINT('',(0.0,0.0,0.0));
#235=DIRECTION('',(0.0,0.0,1.0));
#236=DIRECTION('',(1.0,0.0,0.0));
#237=(GEOMETRIC_REPRESENTATION_CONTEXT(3)GLOBAL_UNCERTAINTY_ASSIGNED_CONTEXT((#238))GLOBAL_UNIT_ASSIGNED_CONTEXT((#26,#27,#28))REPRESENTATION_CONTEXT('',''));
#238=UNCERTAINTY_MEASURE_WITH_UNIT(LENGTH_MEASURE(1.0E-07),#26,'','maximum tolerance');
#239=ADVANCED_BREP_SHAPE_REPRESENTATION('',(#184,#9),#237);
#240=(REPRESENTATION_RELATIONSHIP('',$,#239,#29)REPRESENTATION_RELATIONSHIP_WITH_TRANSFORMATION(#241)SHAPE_REPRESENTATION_RELATIONSHIP());
#241=ITEM_DEFINED_TRANSFORMATION('',$,#9,#21);
#242=PRODUCT('Pin2','Pin2',$,(#3));
#243=PRODUCT_DEFINITION_FORMATION('',$,#242);
#244=PRODUCT_DEFINITION('design',$,#243,#6);
#245=NEXT_ASSEMBLY_USAGE_OCCURRENCE('instance_3','','',#7,#244,$);
#246=PRODUCT_DEFINITION_SHAPE('',$,#245);
#247=CONTEXT_DEPENDENT_SHAPE_REPRESENTATION(#240,#246);
#248=PRODUCT_DEFINITION_SHAPE('',$,#244);
#249=SHAPE_DEFINITION_REPRESENTATION(#248,#239);
#250=PRODUCT_RELATED_PRODUCT_CATEGORY('part',$,(#242));
#251=STYLED_ITEM('',(#252),#184);
#252=PRESENTATION_STYLE_ASSIGNMENT((#253));
#253=SURFACE_STYLE_USAGE(.BOTH.,#254);
#254=SURFACE_SIDE_STYLE('',(#255));
#255=SURFACE_STYLE_FILL_AREA(#256);
#256=FILL_AREA_STYLE('',(#258));
#257=COLOUR_RGB('',0.734000027,0.773000002,0.796999991);
#258=FILL_AREA_STYLE_COLOUR('',#257);
#259=MECHANICAL_DESIGN_GEOMETRIC_PRESENTATION_REPRESENTATION('',(#251),#237);
ENDSEC;
END-ISO-10303-21;
