ISO-10303-21;
HEADER;
FILE_DESCRIPTION(('STEP AP214'),'1');
FILE_NAME('SG-WFWLB-5-2','2023-11-20T07:49:35',(''),(''),'','','');
FILE_SCHEMA(('AUTOMOTIVE_DESIGN'));
ENDSEC;
DATA;
#1=SHAPE_DEFINITION_REPRESENTATION(#2,#3);
#2=PRODUCT_DEFINITION_SHAPE('',$,#4);
#3=SHAPE_REPRESENTATION('',(#188,#197,#206,#215,#224,#234,#290,#19),#11);
#4=PRODUCT_DEFINITION('design','example product_definition',#6,#5);
#5=PRODUCT_DEFINITION_CONTEXT('3D Mechanical Parts',#10,'design');
#6=PRODUCT_DEFINITION_FORMATION('1.0','first version',#8);
#7=APPLICATION_PROTOCOL_DEFINITION('international standard','automotive_design',2003,#10);
#8=PRODUCT('product','part','',(#9));
#9=PRODUCT_CONTEXT('3D Mechanical Parts',#10,'mechanical');
#10=APPLICATION_CONTEXT('Core Data for Automotive Mechanical Design Process');
#11=(GEOMETRIC_REPRESENTATION_CONTEXT(3) GLOBAL_UNCERTAINTY_ASSIGNED_CONTEXT((#12)) GLOBAL_UNIT_ASSIGNED_CONTEXT((#13,#14,#18)) REPRESENTATION_CONTEXT('ID1','3D'));
#12=UNCERTAINTY_MEASURE_WITH_UNIT(LENGTH_MEASURE(1.E-005),#13,'DISTANCE_ACCURACY_VALUE','Maximum model space distance between geometric entities at asserted connectivities');
#13=(LENGTH_UNIT() NAMED_UNIT(*) SI_UNIT(.MILLI.,.METRE.));
#14=(CONVERSION_BASED_UNIT('degree',#16) NAMED_UNIT(#15) PLANE_ANGLE_UNIT());
#15=DIMENSIONAL_EXPONENTS(0.,0.,0.,0.,0.,0.,0.);
#16=MEASURE_WITH_UNIT(PLANE_ANGLE_MEASURE(0.01745329252),#17);
#17=(NAMED_UNIT(*) PLANE_ANGLE_UNIT() SI_UNIT($,.RADIAN.));
#18=(NAMED_UNIT(*) SI_UNIT($,.STERADIAN.) SOLID_ANGLE_UNIT());
#19=AXIS2_PLACEMENT_3D('',#20,#21,#22);
#20=CARTESIAN_POINT('',(0.0,0.0,0.0));
#21=DIRECTION('',(0.0,0.0,1.0));
#22=DIRECTION('',(1.0,0.0,0.0));
#25=MECHANICAL_DESIGN_GEOMETRIC_PRESENTATION_REPRESENTATION($,(#190,#199,#208,#217,#226,#286,#287,#288,#292,#341,#390,#439,#488,#537),#11);
#26=PRODUCT_CATEGORY_RELATIONSHIP('','',#27,#28);
#27=PRODUCT_CATEGORY('part','');
#28=PRODUCT_RELATED_PRODUCT_CATEGORY('','',(#8));
#34=PRESENTATION_STYLE_ASSIGNMENT((#35,#40));
#35=SURFACE_STYLE_USAGE(.BOTH.,#36);
#36=SURFACE_SIDE_STYLE('',(#37));
#37=SURFACE_STYLE_FILL_AREA(#38);
#38=FILL_AREA_STYLE('',(#39));
#39=FILL_AREA_STYLE_COLOUR('',#41);
#40=CURVE_STYLE('',#42,POSITIVE_LENGTH_MEASURE(0.1),#41);
#41=COLOUR_RGB('Aluminum',0.725,0.725,0.725);
#42=DRAUGHTING_PRE_DEFINED_CURVE_FONT('continuous');
#43=PRESENTATION_STYLE_ASSIGNMENT((#44,#49));
#44=SURFACE_STYLE_USAGE(.BOTH.,#45);
#45=SURFACE_SIDE_STYLE('',(#46));
#46=SURFACE_STYLE_FILL_AREA(#47);
#47=FILL_AREA_STYLE('',(#48));
#48=FILL_AREA_STYLE_COLOUR('',#50);
#49=CURVE_STYLE('',#51,POSITIVE_LENGTH_MEASURE(0.1),#50);
#50=COLOUR_RGB('Black',0.196,0.196,0.196);
#51=DRAUGHTING_PRE_DEFINED_CURVE_FONT('continuous');
#52=PRESENTATION_STYLE_ASSIGNMENT((#53,#58));
#53=SURFACE_STYLE_USAGE(.BOTH.,#54);
#54=SURFACE_SIDE_STYLE('',(#55));
#55=SURFACE_STYLE_FILL_AREA(#56);
#56=FILL_AREA_STYLE('',(#57));
#57=FILL_AREA_STYLE_COLOUR('',#59);
#58=CURVE_STYLE('',#60,POSITIVE_LENGTH_MEASURE(0.1),#59);
#59=COLOUR_RGB('Pin1',0.588,0.588,0.588);
#60=DRAUGHTING_PRE_DEFINED_CURVE_FONT('continuous');
#61=PRESENTATION_STYLE_ASSIGNMENT((#62,#67));
#62=SURFACE_STYLE_USAGE(.BOTH.,#63);
#63=SURFACE_SIDE_STYLE('',(#64));
#64=SURFACE_STYLE_FILL_AREA(#65);
#65=FILL_AREA_STYLE('',(#66));
#66=FILL_AREA_STYLE_COLOUR('',#68);
#67=CURVE_STYLE('',#69,POSITIVE_LENGTH_MEASURE(0.1),#68);
#68=COLOUR_RGB('HeatTab',0.588,0.588,0.588);
#69=DRAUGHTING_PRE_DEFINED_CURVE_FONT('continuous');
#70=PRESENTATION_STYLE_ASSIGNMENT((#71,#76));
#71=SURFACE_STYLE_USAGE(.BOTH.,#72);
#72=SURFACE_SIDE_STYLE('',(#73));
#73=SURFACE_STYLE_FILL_AREA(#74);
#74=FILL_AREA_STYLE('',(#75));
#75=FILL_AREA_STYLE_COLOUR('',#77);
#76=CURVE_STYLE('',#78,POSITIVE_LENGTH_MEASURE(0.1),#77);
#77=COLOUR_RGB('Gold',0.843,0.686,0.0);
#78=DRAUGHTING_PRE_DEFINED_CURVE_FONT('continuous');
#79=PRESENTATION_STYLE_ASSIGNMENT((#80,#85));
#80=SURFACE_STYLE_USAGE(.BOTH.,#81);
#81=SURFACE_SIDE_STYLE('',(#82));
#82=SURFACE_STYLE_FILL_AREA(#83);
#83=FILL_AREA_STYLE('',(#84));
#84=FILL_AREA_STYLE_COLOUR('',#86);
#85=CURVE_STYLE('',#87,POSITIVE_LENGTH_MEASURE(0.1),#86);
#86=COLOUR_RGB('Brown',0.459,0.345,0.176);
#87=DRAUGHTING_PRE_DEFINED_CURVE_FONT('continuous');
#88=PRESENTATION_STYLE_ASSIGNMENT((#89,#94));
#89=SURFACE_STYLE_USAGE(.BOTH.,#90);
#90=SURFACE_SIDE_STYLE('',(#91));
#91=SURFACE_STYLE_FILL_AREA(#92);
#92=FILL_AREA_STYLE('',(#93));
#93=FILL_AREA_STYLE_COLOUR('',#95);
#94=CURVE_STYLE('',#96,POSITIVE_LENGTH_MEASURE(0.1),#95);
#95=COLOUR_RGB('Tan',0.784,0.686,0.51);
#96=DRAUGHTING_PRE_DEFINED_CURVE_FONT('continuous');
#97=PRESENTATION_STYLE_ASSIGNMENT((#98,#103));
#98=SURFACE_STYLE_USAGE(.BOTH.,#99);
#99=SURFACE_SIDE_STYLE('',(#100));
#100=SURFACE_STYLE_FILL_AREA(#101);
#101=FILL_AREA_STYLE('',(#102));
#102=FILL_AREA_STYLE_COLOUR('',#104);
#103=CURVE_STYLE('',#105,POSITIVE_LENGTH_MEASURE(0.1),#104);
#104=COLOUR_RGB('Gray',0.431,0.431,0.431);
#105=DRAUGHTING_PRE_DEFINED_CURVE_FONT('continuous');
#106=PRESENTATION_STYLE_ASSIGNMENT((#107,#112));
#107=SURFACE_STYLE_USAGE(.BOTH.,#108);
#108=SURFACE_SIDE_STYLE('',(#109));
#109=SURFACE_STYLE_FILL_AREA(#110);
#110=FILL_AREA_STYLE('',(#111));
#111=FILL_AREA_STYLE_COLOUR('',#113);
#112=CURVE_STYLE('',#114,POSITIVE_LENGTH_MEASURE(0.1),#113);
#113=COLOUR_RGB('Red',0.6,0.0,0.0);
#114=DRAUGHTING_PRE_DEFINED_CURVE_FONT('continuous');
#115=PRESENTATION_STYLE_ASSIGNMENT((#116,#121));
#116=SURFACE_STYLE_USAGE(.BOTH.,#117);
#117=SURFACE_SIDE_STYLE('',(#118));
#118=SURFACE_STYLE_FILL_AREA(#119);
#119=FILL_AREA_STYLE('',(#120));
#120=FILL_AREA_STYLE_COLOUR('',#122);
#121=CURVE_STYLE('',#123,POSITIVE_LENGTH_MEASURE(0.1),#122);
#122=COLOUR_RGB('Blue',0.157,0.157,0.588);
#123=DRAUGHTING_PRE_DEFINED_CURVE_FONT('continuous');
#124=PRESENTATION_STYLE_ASSIGNMENT((#125,#130));
#125=SURFACE_STYLE_USAGE(.BOTH.,#126);
#126=SURFACE_SIDE_STYLE('',(#127));
#127=SURFACE_STYLE_FILL_AREA(#128);
#128=FILL_AREA_STYLE('',(#129));
#129=FILL_AREA_STYLE_COLOUR('',#131);
#130=CURVE_STYLE('',#132,POSITIVE_LENGTH_MEASURE(0.1),#131);
#131=COLOUR_RGB('Maroon',0.294,0.0,0.0);
#132=DRAUGHTING_PRE_DEFINED_CURVE_FONT('continuous');
#133=PRESENTATION_STYLE_ASSIGNMENT((#134,#139));
#134=SURFACE_STYLE_USAGE(.BOTH.,#135);
#135=SURFACE_SIDE_STYLE('',(#136));
#136=SURFACE_STYLE_FILL_AREA(#137);
#137=FILL_AREA_STYLE('',(#138));
#138=FILL_AREA_STYLE_COLOUR('',#140);
#139=CURVE_STYLE('',#141,POSITIVE_LENGTH_MEASURE(0.1),#140);
#140=COLOUR_RGB('Green',0.0,0.294,0.0);
#141=DRAUGHTING_PRE_DEFINED_CURVE_FONT('continuous');
#142=PRESENTATION_STYLE_ASSIGNMENT((#143,#148));
#143=SURFACE_STYLE_USAGE(.BOTH.,#144);
#144=SURFACE_SIDE_STYLE('',(#145));
#145=SURFACE_STYLE_FILL_AREA(#146);
#146=FILL_AREA_STYLE('',(#147));
#147=FILL_AREA_STYLE_COLOUR('',#149);
#148=CURVE_STYLE('',#150,POSITIVE_LENGTH_MEASURE(0.1),#149);
#149=COLOUR_RGB('Pin1Wrap',0.98,0.706,0.176);
#150=DRAUGHTING_PRE_DEFINED_CURVE_FONT('continuous');
#151=PRESENTATION_STYLE_ASSIGNMENT((#152,#157));
#152=SURFACE_STYLE_USAGE(.BOTH.,#153);
#153=SURFACE_SIDE_STYLE('',(#154));
#154=SURFACE_STYLE_FILL_AREA(#155);
#155=FILL_AREA_STYLE('',(#156));
#156=FILL_AREA_STYLE_COLOUR('',#158);
#157=CURVE_STYLE('',#159,POSITIVE_LENGTH_MEASURE(0.1),#158);
#158=COLOUR_RGB('Pin1Rad',0.588,0.588,0.588);
#159=DRAUGHTING_PRE_DEFINED_CURVE_FONT('continuous');
#160=PRESENTATION_STYLE_ASSIGNMENT((#161,#166));
#161=SURFACE_STYLE_USAGE(.BOTH.,#162);
#162=SURFACE_SIDE_STYLE('',(#163));
#163=SURFACE_STYLE_FILL_AREA(#164);
#164=FILL_AREA_STYLE('',(#165));
#165=FILL_AREA_STYLE_COLOUR('',#167);
#166=CURVE_STYLE('',#168,POSITIVE_LENGTH_MEASURE(0.1),#167);
#167=COLOUR_RGB('Pin1Axial',0.98,0.706,0.176);
#168=DRAUGHTING_PRE_DEFINED_CURVE_FONT('continuous');
#169=PRESENTATION_STYLE_ASSIGNMENT((#170,#175));
#170=SURFACE_STYLE_USAGE(.BOTH.,#171);
#171=SURFACE_SIDE_STYLE('',(#172));
#172=SURFACE_STYLE_FILL_AREA(#173);
#173=FILL_AREA_STYLE('',(#174));
#174=FILL_AREA_STYLE_COLOUR('',#176);
#175=CURVE_STYLE('',#177,POSITIVE_LENGTH_MEASURE(0.1),#176);
#176=COLOUR_RGB('Pin1Tant',0.459,0.345,0.176);
#177=DRAUGHTING_PRE_DEFINED_CURVE_FONT('continuous');
#178=PRESENTATION_STYLE_ASSIGNMENT((#179,#184));
#179=SURFACE_STYLE_USAGE(.BOTH.,#180);
#180=SURFACE_SIDE_STYLE('',(#181));
#181=SURFACE_STYLE_FILL_AREA(#182);
#182=FILL_AREA_STYLE('',(#183));
#183=FILL_AREA_STYLE_COLOUR('',#185);
#184=CURVE_STYLE('',#186,POSITIVE_LENGTH_MEASURE(0.1),#185);
#185=COLOUR_RGB('Shroud',0.235,0.235,0.235);
#186=DRAUGHTING_PRE_DEFINED_CURVE_FONT('continuous');
#188=MANIFOLD_SOLID_BREP($,#189);
#189=CLOSED_SHELL('',(#191));
#190=STYLED_ITEM('color',(#34),#191);
#191=ADVANCED_FACE('',(),#192,.T.);
#192=SPHERICAL_SURFACE('',#193,0.127);
#193=AXIS2_PLACEMENT_3D('',#194,#195,#196);
#194=CARTESIAN_POINT('',(-0.229,0.329,0.127));
#195=DIRECTION('',(0.,0.,-1.));
#196=DIRECTION('',(-1.,0.,0.));
#197=MANIFOLD_SOLID_BREP($,#198);
#198=CLOSED_SHELL('',(#200));
#199=STYLED_ITEM('color',(#34),#200);
#200=ADVANCED_FACE('',(),#201,.T.);
#201=SPHERICAL_SURFACE('',#202,0.127);
#202=AXIS2_PLACEMENT_3D('',#203,#204,#205);
#203=CARTESIAN_POINT('',(0.229,0.329,0.127));
#204=DIRECTION('',(0.,0.,-1.));
#205=DIRECTION('',(-1.,0.,0.));
#206=MANIFOLD_SOLID_BREP($,#207);
#207=CLOSED_SHELL('',(#209));
#208=STYLED_ITEM('color',(#34),#209);
#209=ADVANCED_FACE('',(),#210,.T.);
#210=SPHERICAL_SURFACE('',#211,0.127);
#211=AXIS2_PLACEMENT_3D('',#212,#213,#214);
#212=CARTESIAN_POINT('',(0.0,0.0,0.127));
#213=DIRECTION('',(0.,0.,-1.));
#214=DIRECTION('',(-1.,0.,0.));
#215=MANIFOLD_SOLID_BREP($,#216);
#216=CLOSED_SHELL('',(#218));
#217=STYLED_ITEM('color',(#34),#218);
#218=ADVANCED_FACE('',(),#219,.T.);
#219=SPHERICAL_SURFACE('',#220,0.127);
#220=AXIS2_PLACEMENT_3D('',#221,#222,#223);
#221=CARTESIAN_POINT('',(-0.229,-0.329,0.127));
#222=DIRECTION('',(0.,0.,-1.));
#223=DIRECTION('',(-1.,0.,0.));
#224=MANIFOLD_SOLID_BREP($,#225);
#225=CLOSED_SHELL('',(#227));
#226=STYLED_ITEM('color',(#34),#227);
#227=ADVANCED_FACE('',(),#228,.T.);
#228=SPHERICAL_SURFACE('',#229,0.127);
#229=AXIS2_PLACEMENT_3D('',#230,#231,#232);
#230=CARTESIAN_POINT('',(0.229,-0.329,0.127));
#231=DIRECTION('',(0.,0.,-1.));
#232=DIRECTION('',(-1.,0.,0.));
#234=MANIFOLD_SOLID_BREP($,#235);
#235=CLOSED_SHELL('',(#236,#237,#238));
#236=ADVANCED_FACE($,(#242,#241),#259,.T.);
#237=ADVANCED_FACE($,(#243),#239,.F.);
#238=ADVANCED_FACE($,(#244),#240,.T.);
#239=PLANE($,#264);
#240=PLANE($,#265);
#241=FACE_BOUND($,#246,.T.);
#242=FACE_OUTER_BOUND($,#245,.T.);
#243=FACE_OUTER_BOUND($,#247,.T.);
#244=FACE_OUTER_BOUND($,#248,.T.);
#245=EDGE_LOOP($,(#255));
#246=EDGE_LOOP($,(#256));
#247=EDGE_LOOP($,(#257));
#248=EDGE_LOOP($,(#258));
#249=CIRCLE($,#262,0.024765);
#250=CIRCLE($,#263,0.024765);
#251=VERTEX_POINT('',#280);
#252=VERTEX_POINT('',#282);
#253=EDGE_CURVE($,#251,#251,#249,.T.);
#254=EDGE_CURVE($,#252,#252,#250,.T.);
#255=ORIENTED_EDGE($,*,*,#253,.F.);
#256=ORIENTED_EDGE($,*,*,#254,.F.);
#257=ORIENTED_EDGE($,*,*,#254,.T.);
#258=ORIENTED_EDGE($,*,*,#253,.T.);
#259=CYLINDRICAL_SURFACE($,#261,0.024765);
#260=AXIS2_PLACEMENT_3D('placement',#278,#266,#267);
#261=AXIS2_PLACEMENT_3D($,#279,#268,#269);
#262=AXIS2_PLACEMENT_3D($,#281,#270,#271);
#263=AXIS2_PLACEMENT_3D($,#283,#272,#273);
#264=AXIS2_PLACEMENT_3D($,#284,#274,#275);
#265=AXIS2_PLACEMENT_3D($,#285,#276,#277);
#266=DIRECTION('axis',(0.,1.,0.));
#267=DIRECTION('refdir',(1.,0.,0.));
#268=DIRECTION('',(0.,0.,1.));
#269=DIRECTION('',(1.,0.,0.));
#270=DIRECTION('',(0.,0.,1.));
#271=DIRECTION('',(1.,0.,0.));
#272=DIRECTION('',(0.,0.,-1.));
#273=DIRECTION('',(1.,0.,0.));
#274=DIRECTION('',(0.,0.,1.));
#275=DIRECTION('',(0.,1.,0.));
#276=DIRECTION('',(0.,0.,1.));
#277=DIRECTION('',(0.,1.,0.));
#278=CARTESIAN_POINT('',(0.,0.,0.));
#279=CARTESIAN_POINT('',(-0.396,0.485,0.635));
#280=CARTESIAN_POINT('',(-0.421,0.485,0.638));
#281=CARTESIAN_POINT('',(-0.396,0.485,0.638));
#282=CARTESIAN_POINT('',(-0.421,0.485,0.635));
#283=CARTESIAN_POINT('',(-0.396,0.485,0.635));
#284=CARTESIAN_POINT('',(-0.396,0.485,0.635));
#285=CARTESIAN_POINT('',(-0.396,0.485,0.638));
#286=STYLED_ITEM('color',(#52),#236);
#287=STYLED_ITEM('color',(#52),#237);
#288=STYLED_ITEM('color',(#52),#238);
#290=MANIFOLD_SOLID_BREP($,#291);
#291=CLOSED_SHELL('',(#293,#342,#391,#440,#489,#538));
#292=STYLED_ITEM('',(#43),#293);
#293=ADVANCED_FACE('',(#299),#294,.T.);
#294=PLANE('',#295);
#295=AXIS2_PLACEMENT_3D('',#296,#297,#298);
#296=CARTESIAN_POINT('',(-0.495,-0.584,0.253));
#297=DIRECTION('',(0.0,-1.0,0.0));
#298=DIRECTION('',(0.,0.,1.));
#299=FACE_OUTER_BOUND('',#300,.T.);
#300=EDGE_LOOP('',(#301,#311,#321,#331));
#304=CARTESIAN_POINT('',(0.495,-0.584,0.253));
#303=VERTEX_POINT('',#304);
#306=CARTESIAN_POINT('',(-0.495,-0.584,0.253));
#305=VERTEX_POINT('',#306);
#302=EDGE_CURVE('',#303,#305,#307,.T.);
#307=LINE('',#304,#309);
#309=VECTOR('',#310,0.9906);
#310=DIRECTION('',(-1.0,0.0,0.0));
#301=ORIENTED_EDGE('',*,*,#302,.F.);
#314=CARTESIAN_POINT('',(0.495,-0.584,0.635));
#313=VERTEX_POINT('',#314);
#312=EDGE_CURVE('',#313,#303,#317,.T.);
#317=LINE('',#314,#319);
#319=VECTOR('',#320,0.3820000000066);
#320=DIRECTION('',(0.0,0.0,-1.0));
#311=ORIENTED_EDGE('',*,*,#312,.F.);
#324=CARTESIAN_POINT('',(-0.495,-0.584,0.635));
#323=VERTEX_POINT('',#324);
#322=EDGE_CURVE('',#323,#313,#327,.T.);
#327=LINE('',#324,#329);
#329=VECTOR('',#330,0.9906);
#330=DIRECTION('',(1.0,0.0,0.0));
#321=ORIENTED_EDGE('',*,*,#322,.F.);
#332=EDGE_CURVE('',#305,#323,#337,.T.);
#337=LINE('',#306,#339);
#339=VECTOR('',#340,0.3820000000066);
#340=DIRECTION('',(0.0,0.0,1.0));
#331=ORIENTED_EDGE('',*,*,#332,.F.);
#341=STYLED_ITEM('',(#43),#342);
#342=ADVANCED_FACE('',(#348),#343,.T.);
#343=PLANE('',#344);
#344=AXIS2_PLACEMENT_3D('',#345,#346,#347);
#345=CARTESIAN_POINT('',(0.495,-0.584,0.253));
#346=DIRECTION('',(1.0,0.0,0.0));
#347=DIRECTION('',(0.,0.,1.));
#348=FACE_OUTER_BOUND('',#349,.T.);
#349=EDGE_LOOP('',(#350,#360,#370,#380));
#353=CARTESIAN_POINT('',(0.495,0.584,0.253));
#352=VERTEX_POINT('',#353);
#351=EDGE_CURVE('',#352,#303,#356,.T.);
#356=LINE('',#353,#358);
#358=VECTOR('',#359,1.1684);
#359=DIRECTION('',(0.0,-1.0,0.0));
#350=ORIENTED_EDGE('',*,*,#351,.F.);
#363=CARTESIAN_POINT('',(0.495,0.584,0.635));
#362=VERTEX_POINT('',#363);
#361=EDGE_CURVE('',#362,#352,#366,.T.);
#366=LINE('',#363,#368);
#368=VECTOR('',#369,0.3820000000066);
#369=DIRECTION('',(0.0,0.0,-1.0));
#360=ORIENTED_EDGE('',*,*,#361,.F.);
#371=EDGE_CURVE('',#313,#362,#376,.T.);
#376=LINE('',#314,#378);
#378=VECTOR('',#379,1.1684);
#379=DIRECTION('',(0.0,1.0,0.0));
#370=ORIENTED_EDGE('',*,*,#371,.F.);
#380=ORIENTED_EDGE('',*,*,#312,.T.);
#390=STYLED_ITEM('',(#43),#391);
#391=ADVANCED_FACE('',(#397),#392,.T.);
#392=PLANE('',#393);
#393=AXIS2_PLACEMENT_3D('',#394,#395,#396);
#394=CARTESIAN_POINT('',(0.495,0.584,0.253));
#395=DIRECTION('',(0.0,1.0,0.0));
#396=DIRECTION('',(0.,0.,1.));
#397=FACE_OUTER_BOUND('',#398,.T.);
#398=EDGE_LOOP('',(#399,#409,#419,#429));
#402=CARTESIAN_POINT('',(-0.495,0.584,0.253));
#401=VERTEX_POINT('',#402);
#400=EDGE_CURVE('',#401,#352,#405,.T.);
#405=LINE('',#402,#407);
#407=VECTOR('',#408,0.9906);
#408=DIRECTION('',(1.0,0.0,0.0));
#399=ORIENTED_EDGE('',*,*,#400,.F.);
#412=CARTESIAN_POINT('',(-0.495,0.584,0.635));
#411=VERTEX_POINT('',#412);
#410=EDGE_CURVE('',#411,#401,#415,.T.);
#415=LINE('',#412,#417);
#417=VECTOR('',#418,0.3820000000066);
#418=DIRECTION('',(0.0,0.0,-1.0));
#409=ORIENTED_EDGE('',*,*,#410,.F.);
#420=EDGE_CURVE('',#362,#411,#425,.T.);
#425=LINE('',#363,#427);
#427=VECTOR('',#428,0.9906);
#428=DIRECTION('',(-1.0,0.0,0.0));
#419=ORIENTED_EDGE('',*,*,#420,.F.);
#429=ORIENTED_EDGE('',*,*,#361,.T.);
#439=STYLED_ITEM('',(#43),#440);
#440=ADVANCED_FACE('',(#446),#441,.T.);
#441=PLANE('',#442);
#442=AXIS2_PLACEMENT_3D('',#443,#444,#445);
#443=CARTESIAN_POINT('',(-0.495,0.584,0.253));
#444=DIRECTION('',(-1.0,0.0,0.0));
#445=DIRECTION('',(0.,0.,1.));
#446=FACE_OUTER_BOUND('',#447,.T.);
#447=EDGE_LOOP('',(#448,#458,#468,#478));
#449=EDGE_CURVE('',#305,#401,#454,.T.);
#454=LINE('',#306,#456);
#456=VECTOR('',#457,1.1684);
#457=DIRECTION('',(0.0,1.0,0.0));
#448=ORIENTED_EDGE('',*,*,#449,.F.);
#458=ORIENTED_EDGE('',*,*,#332,.T.);
#469=EDGE_CURVE('',#411,#323,#474,.T.);
#474=LINE('',#412,#476);
#476=VECTOR('',#477,1.1684);
#477=DIRECTION('',(0.0,-1.0,0.0));
#468=ORIENTED_EDGE('',*,*,#469,.F.);
#478=ORIENTED_EDGE('',*,*,#410,.T.);
#488=STYLED_ITEM('',(#43),#489);
#489=ADVANCED_FACE('',(#495),#490,.T.);
#490=PLANE('',#491);
#491=AXIS2_PLACEMENT_3D('',#492,#493,#494);
#492=CARTESIAN_POINT('',(-0.495,0.584,0.253));
#493=DIRECTION('',(0.0,0.0,-1.0));
#494=DIRECTION('',(0.,1.,0.));
#495=FACE_OUTER_BOUND('',#496,.T.);
#496=EDGE_LOOP('',(#497,#507,#517,#527));
#497=ORIENTED_EDGE('',*,*,#400,.T.);
#507=ORIENTED_EDGE('',*,*,#351,.T.);
#517=ORIENTED_EDGE('',*,*,#302,.T.);
#527=ORIENTED_EDGE('',*,*,#449,.T.);
#537=STYLED_ITEM('',(#43),#538);
#538=ADVANCED_FACE('',(#544),#539,.T.);
#539=PLANE('',#540);
#540=AXIS2_PLACEMENT_3D('',#541,#542,#543);
#541=CARTESIAN_POINT('',(-0.495,-0.584,0.635));
#542=DIRECTION('',(0.0,0.0,1.0));
#543=DIRECTION('',(0.,1.,0.));
#544=FACE_OUTER_BOUND('',#545,.T.);
#545=EDGE_LOOP('',(#546,#556,#566,#576));
#546=ORIENTED_EDGE('',*,*,#322,.T.);
#556=ORIENTED_EDGE('',*,*,#371,.T.);
#566=ORIENTED_EDGE('',*,*,#420,.T.);
#576=ORIENTED_EDGE('',*,*,#469,.T.);
ENDSEC;
END-ISO-10303-21;
