0
SECTION
2
HEADER
9
$INSUNITS
70
4
9
$ACADVER
1
AC1014
9
$HANDSEED
5
FFFF
0
ENDSEC
0
SECTION
2
TABLES
0
TABLE
2
VPORT
5
8
100
AcDbSymbolTable
0
ENDTAB
0
TABLE
2
LTYPE
5
5
100
AcDbSymbolTable
0
LTYPE
5
14
100
AcDbSymbolTableRecord
100
AcDbLinetypeTableRecord
2
BYBLOCK
70
0
0
LTYPE
5
15
100
AcDbSymbolTableRecord
100
AcDbLinetypeTableRecord
2
BYLAYER
70
0
0
LTYPE
5
16
100
AcDbSymbolTableRecord
100
AcDbLinetypeTableRecord
2
DASHED
70
0
3
Dashed __ __ __ __ __ __ __ __ __ __ __ __ __ _
72
65
73
2
40
0.75
49
0.5
74
0
49
-0.25
74
0
0
ENDTAB
0
TABLE
2
LAYER
5
2
100
AcDbSymbolTable
70
2
0
LAYER
5
50
100
AcDbSymbolTableRecord
100
AcDbLayerTableRecord
2
0
70
0
62
7
6
CONTINUOUS
0
ENDTAB
0
TABLE
2
STYLE
5
3
100
AcDbSymbolTable
70
1
0
STYLE
5
11
100
AcDbSymbolTableRecord
100
AcDbTextStyleTableRecord
2
STANDARD
70
0
0
ENDTAB
0
TABLE
2
VIEW
5
6
100
AcDbSymbolTable
70
0
0
ENDTAB
0
TABLE
2
UCS
5
7
100
AcDbSymbolTable
70
0
0
ENDTAB
0
TABLE
2
APPID
5
9
100
AcDbSymbolTable
70
2
0
APPID
5
12
100
AcDbSymbolTableRecord
100
AcDbRegAppTableRecord
2
ACAD
70
0
0
ENDTAB
0
TABLE
2
DIMSTYLE
5
A
100
AcDbSymbolTable
70
1
0
ENDTAB
0
TABLE
2
BLOCK_RECORD
5
1
100
AcDbSymbolTable
70
1
0
BLOCK_RECORD
5
1F
100
AcDbSymbolTableRecord
100
AcDbBlockTableRecord
2
*MODEL_SPACE
0
BLOCK_RECORD
5
1B
100
AcDbSymbolTableRecord
100
AcDbBlockTableRecord
2
*PAPER_SPACE
0
ENDTAB
0
ENDSEC
0
SECTION
2
BLOCKS
0
BLOCK
5
20
100
AcDbEntity
100
AcDbBlockBegin
2
*MODEL_SPACE
0
ENDBLK
5
21
100
AcDbEntity
100
AcDbBlockEnd
0
BLOCK
5
1C
100
AcDbEntity
100
AcDbBlockBegin
2
*PAPER_SPACE
0
ENDBLK
5
1D
100
AcDbEntity
100
AcDbBlockEnd
0
ENDSEC
0
SECTION
2
ENTITIES
0
LINE
5
100
100
AcDbEntity
8
0
100
AcDbLine
10
-9.1545000000000005
20
-60.9818
30
0
11
13.450200000000002
21
-60.9818
31
0
0
SPLINE
5
101
100
AcDbEntity
8
0
100
AcDbSpline
70
0
71
3
72
33
73
29
74
0
42
0.000000001
43
0.0000000001
44
0.0000000001
40
0
40
0
40
0
40
0
40
0.00010662823831145279
40
0.00021326855880268015
40
0.00042654859322020013
40
0.00085310625094405087
40
0.0012796607340490628
40
0.0017062120828103826
40
0.0025593054986066616
40
0.0034123868600490232
40
0.0051185143890152725
40
0.0068245975598012947
40
0.0085306389418347735
40
0.010236641101861538
40
0.013648535468984417
40
0.017060303686610438
40
0.02047196620128645
40
0.027295035428861313
40
0.034117926409754085
40
0.040940801672719025
40
0.047763823430175122
40
0.054587153671073786
40
0.068235224720576429
40
0.081886472061122026
40
0.095537948586950736
40
0.10918666796238836
40
0.13647951656732157
40
0.16377632754300253
40
0.16377632754300253
40
0.16377632754300253
40
0.16377632754300253
10
13.450200000000001
20
-60.9818
30
0
10
13.450555156545667
20
-60.981786125270077
30
0
10
13.451266444982137
20
-60.981806210491982
30
0
10
13.452688081543769
20
-60.981796049312038
30
0
10
13.455176461225404
20
-60.981801048896344
30
0
10
13.458731033410077
20
-60.981794355094465
30
0
10
13.462996595142478
20
-60.981788944128482
30
0
10
13.468683906239649
20
-60.981776432493163
30
0
10
13.475792965652474
20
-60.981754908377674
30
0
10
13.487167203714476
20
-60.981706234554665
30
0
10
13.50138459517423
20
-60.981619477685541
30
0
10
13.518444828540241
20
-60.981473666920493
30
0
10
13.535504239050526
20
-60.981286224847864
30
0
10
13.558248666507257
20
-60.980980781226599
30
0
10
13.586676851982435
20
-60.98049489461161
30
0
10
13.620786506239767
20
-60.979745329708813
30
0
10
13.666258589194742
20
-60.978523993373472
30
0
10
13.723085118099563
20
-60.976581293007357
30
0
10
13.791249796646735
20
-60.973584736380474
30
0
10
13.859381849093682
20
-60.969923232805805
30
0
10
13.927476458777551
20
-60.965597129193803
30
0
10
14.018215397342406
20
-60.958943110833744
30
0
10
14.131527002629657
20
-60.948965301662412
30
0
10
14.267252292223397
20
-60.934340061034924
30
0
10
14.402669817413527
20
-60.91707394373708
30
0
10
14.582713019694204
20
-60.890549344321705
30
0
10
14.806740350017112
20
-60.850830368236942
30
0
10
14.98458962591906
20
-60.81209452816011
30
0
10
15.0731
20
-60.791000000000004
30
0
0
SPLINE
5
102
100
AcDbEntity
8
0
100
AcDbSpline
70
0
71
3
72
36
73
32
74
0
42
0.000000001
43
0.0000000001
44
0.0000000001
40
0
40
0
40
0
40
0
40
0.00031835548148206546
40
0.00063671995302106072
40
0.0012732559537046413
40
0.0025455576404370662
40
0.0038168350169476982
40
0.0050870914128202027
40
0.0076245545730807465
40
0.010157973798141942
40
0.012687375772358256
40
0.015212787201856941
40
0.020251745229378934
40
0.025275062104034282
40
0.030282952296192798
40
0.040253311144196648
40
0.05016454658286356
40
0.060018388973118883
40
0.069816575770079201
40
0.079560851901948657
40
0.098894673725884674
40
0.11803399212899995
40
0.13699307310631881
40
0.15578633699824002
40
0.19293365736649992
40
0.22959498488952096
40
0.26589218650014368
40
0.30195034757282635
40
0.33789784370911163
40
0.37386629894865014
40
0.44640219420538207
40
0.44640219420538207
40
0.44640219420538207
40
0.44640219420538207
10
15.0731
20
-60.791000000000004
30
0
10
15.074127715717829
20
-60.790735587677027
30
0
10
15.076198899714512
20
-60.790270211208757
30
0
10
15.080324154351377
20
-60.789272932920866
30
0
10
15.087547659251923
20
-60.787558866818159
30
0
10
15.097857368407084
20
-60.78509367018944
30
0
10
15.110222654089974
20
-60.782141563451681
30
0
10
15.126688445914615
20
-60.778204290160915
30
0
10
15.147244668204332
20
-60.773282901269312
30
0
10
15.171880064601782
20
-60.767373327857882
30
0
10
15.196473836237645
20
-60.761462457702649
30
0
10
15.229184652307978
20
-60.753585308572546
30
0
10
15.269970823380961
20
-60.743734286472375
30
0
10
15.318789602826556
20
-60.731894918835714
30
0
10
15.383568160485622
20
-60.71611898722508
30
0
10
15.464147880402832
20
-60.69636799486247
30
0
10
15.56036652706358
20
-60.672569059535093
30
0
10
15.655975214167961
20
-60.648695267898773
30
0
10
15.750988047481284
20
-60.62473347236579
30
0
10
15.876562883587496
20
-60.592734446726908
30
0
10
16.032156476223985
20
-60.552443704833763
30
0
10
16.217210405891656
20
-60.503402824698696
30
0
10
16.400219844082105
20
-60.453693816130844
30
0
10
16.640715669236069
20
-60.386646298389394
30
0
10
16.937158592996166
20
-60.300573298127972
30
0
10
17.287926498402719
20
-60.192507370714807
30
0
10
17.633230116349253
20
-60.079224058166069
30
0
10
17.973968489792234
20
-59.959879161087329
30
0
10
18.311045660750111
20
-59.833623407652958
30
0
10
18.758011190364009
20
-59.654469123160851
30
0
10
19.088818821748639
20
-59.507769291254498
30
0
10
19.307299999999998
20
-59.404199999999996
30
0
0
SPLINE
5
103
100
AcDbEntity
8
0
100
AcDbSpline
70
0
71
3
72
37
73
33
74
0
42
0.000000001
43
0.0000000001
44
0.0000000001
40
0
40
0
40
0
40
0
40
8.3590783294509052e-05
40
0.00016720826529011753
40
0.00033440771509169853
40
0.0006686646077446103
40
0.0010027322548004818
40
0.0013366107711878373
40
0.0020038008643260127
40
0.0026702358142795431
40
0.0040008439048051948
40
0.0053284424639546621
40
0.0066530388566825348
40
0.0079746404511724361
40
0.010608888249536891
40
0.013231245350173459
40
0.015841770813744761
40
0.021027559355838856
40
0.026166731283860094
40
0.031259760879978747
40
0.036307123203029604
40
0.041309294072701737
40
0.05117993435368226
40
0.060875536034269755
40
0.070399931104075386
40
0.079756961674903731
40
0.097984040258048327
40
0.11558796365518346
40
0.13259972543251636
40
0.14905036192782856
40
0.18038944667959636
40
0.20985461611376091
40
0.20985461611376091
40
0.20985461611376091
40
0.20985461611376091
10
19.307299999999998
20
-59.404199999999996
30
0
10
19.307546887914079
20
-59.404070832096295
30
0
10
19.308057643986579
20
-59.403846370042586
30
0
10
19.309061398451622
20
-59.403361873918151
30
0
10
19.310825700326856
20
-59.402530554718957
30
0
10
19.313340665063372
20
-59.401334169111749
30
0
10
19.316358757694797
20
-59.399901915673965
30
0
10
19.320378252605181
20
-59.397991377402647
30
0
10
19.325397508754165
20
-59.395603428224319
30
0
10
19.333414559721117
20
-59.391783076624378
30
0
10
19.34341463764633
20
-59.387006852889428
30
0
10
19.355387486071443
20
-59.381270702268132
30
0
10
19.367326370800125
20
-59.37553316509387
30
0
10
19.383181743525139
20
-59.367889894402154
30
0
10
19.402916572238244
20
-59.358332360913721
30
0
10
19.426490328557549
20
-59.346844740677618
30
0
10
19.457672416158474
20
-59.331555001150647
30
0
10
19.496317056171812
20
-59.312429235308798
30
0
10
19.542264121056519
20
-59.289404027997193
30
0
10
19.587683272281634
20
-59.266356707683656
30
0
10
19.632578416641643
20
-59.24328732949828
30
0
10
19.691481439109843
20
-59.212636033087207
30
0
10
19.763834616562008
20
-59.174268982091135
30
0
10
19.849018073622993
20
-59.127932476862867
30
0
10
19.932199135939783
20
-59.081508894800301
30
0
10
20.039538579857428
20
-59.020033735219954
30
0
10
20.168983214382862
20
-58.942982610234331
30
0
10
20.318196428838338
20
-58.84934865006214
30
0
10
20.460147536157013
20
-58.755373053338801
30
0
10
20.637209018078202
20
-58.631617054416566
30
0
10
20.842553610520373
20
-58.476012390235454
30
0
10
20.997206802002076
20
-58.344816189779934
30
0
10
21.0702
20
-58.2791
30
0
0
SPLINE
5
104
100
AcDbEntity
8
0
100
AcDbSpline
70
0
71
3
72
38
73
34
74
0
42
0.000000001
43
0.0000000001
44
0.0000000001
40
0
40
0
40
0
40
0
40
6.1221407008839259e-05
40
0.00012246758011116035
40
0.00024494955904630421
40
0.000489872106846034
40
0.00073473955790523903
40
0.00097955204931268747
40
0.0014690126868880694
40
0.001958255132193578
40
0.0029360897212133185
40
0.0039130647335288357
40
0.0048891889795426823
40
0.0058644712821408146
40
0.0078125444395406619
40
0.0097573559990254168
40
0.011698976980713182
40
0.015572924305914126
40
0.01943496609365801
40
0.023285676988168694
40
0.027125634288337027
40
0.030955417796996707
40
0.038586727625613493
40
0.046184354571978253
40
0.053753010676205901
40
0.061297431711337294
40
0.076332038763609292
40
0.091326857729126021
40
0.10632000047649601
40
0.1213493505184285
40
0.1364523617838205
40
0.15166587039249466
40
0.18256390211025628
40
0.18256390211025628
40
0.18256390211025628
40
0.18256390211025628
10
21.0702
20
-58.2791
30
0
10
21.070342476212986
20
-58.278953898503232
30
0
10
21.070659141680913
20
-58.278694575361683
30
0
10
21.071259297375601
20
-58.278141333511783
30
0
10
21.072324811992175
20
-58.277189061787134
30
0
10
21.073838182850313
20
-58.275819903369033
30
0
10
21.075656568344172
20
-58.274179889591515
30
0
10
21.078077981958707
20
-58.271991490366915
30
0
10
21.081102123933832
20
-58.269255098835615
30
0
10
21.085933508361062
20
-58.26487429015841
30
0
10
21.091960700522939
20
-58.259393043159875
30
0
10
21.099175502784604
20
-58.252805529599286
30
0
10
21.106370951413346
20
-58.246209464030528
30
0
10
21.11593503148169
20
-58.237406994692755
30
0
10
21.127842106786943
20
-58.226382211563234
30
0
10
21.142059774094268
20
-58.213112003398557
30
0
10
21.160899418863657
20
-58.195385732165185
30
0
10
21.184259735940518
20
-58.173138394627557
30
0
10
21.212011171539213
20
-58.146276250579717
30
0
10
21.23946146446692
20
-58.119267733408158
30
0
10
21.266612794878519
20
-58.092110487484874
30
0
10
21.302374652486922
20
-58.055744364409243
30
0
10
21.346353119878625
20
-58.009894089871977
30
0
10
21.398030375869837
20
-57.95417363632248
30
0
10
21.448563610187826
20
-57.897801473481671
30
0
10
21.51435878772282
20
-57.82183773214669
30
0
10
21.593916590824868
20
-57.725070467010568
30
0
10
21.685189037034597
20
-57.605904069615775
30
0
10
21.772292634660374
20
-57.483677909339555
30
0
10
21.855364488375351
20
-57.358245490969935
30
0
10
21.934544361423406
20
-57.229455585544279
30
0
10
22.035624043179055
20
-57.052172039265081
30
0
10
22.105238565520942
20
-56.914987032653066
30
0
10
22.149099999999997
20
-56.82180000000001
30
0
0
SPLINE
5
105
100
AcDbEntity
8
0
100
AcDbSpline
70
0
71
3
72
42
73
38
74
0
42
0.000000001
43
0.0000000001
44
0.0000000001
40
0
40
0
40
0
40
0
40
8.2914191211754518e-05
40
0.0001658717263017764
40
0.00033180216639327955
40
0.00049775311486290811
40
0.00066372458904058126
40
0.00099572917959167822
40
0.0013278160805326581
40
0.0019922373320941686
40
0.0026569894777756114
40
0.0033220736136272671
40
0.0039874908310857035
40
0.0053193285914447585
40
0.0066525116623422651
40
0.0079870486100204734
40
0.010660215988361669
40
0.013338899873920991
40
0.016023166180095604
40
0.018713079669400459
40
0.02140870396130936
40
0.026817318615663933
40
0.032249512130488586
40
0.037705753145705657
40
0.043186492823429803
40
0.054223081195950991
40
0.065362660476970813
40
0.076608240787967408
40
0.087962581754838662
40
0.099428202697221607
40
0.11100739288810237
40
0.13451399692206339
40
0.15849711975956787
40
0.18296781483111946
40
0.2079343990959433
40
0.23340273671096853
40
0.28585554297350313
40
0.28585554297350313
40
0.28585554297350313
40
0.28585554297350313
10
22.149099999999997
20
-56.82180000000001
30
0
10
22.149198506312256
20
-56.821541769941419
30
0
10
22.149461884940187
20
-56.821053383816448
30
0
10
22.149919028197598
20
-56.820046777426477
30
0
10
22.150514150505579
20
-56.818798273237036
30
0
10
22.15121766678061
20
-56.817295357547152
30
0
10
22.15215879680725
20
-56.815292318192675
30
0
10
22.153333012566826
20
-56.812786973928823
30
0
10
22.155210481096542
20
-56.808776279166381
30
0
10
22.1575531900288
20
-56.803758710858723
30
0
10
22.160357972516497
20
-56.797731869383782
30
0
10
22.163156515791648
20
-56.791698469284796
30
0
10
22.166880578253885
20
-56.78364319148492
30
0
10
22.171520157365066
20
-56.773557706771591
30
0
10
22.177061523637658
20
-56.761432026994207
30
0
10
22.184420872989598
20
-56.74522135665363
30
0
10
22.193558506574391
20
-56.724892527991095
30
0
10
22.204420079475419
20
-56.70040623832287
30
0
10
22.215184142281093
20
-56.675815980676731
30
0
10
22.225851169001281
20
-56.651121947233072
30
0
10
22.239960231520278
20
-56.618023012168408
30
0
10
22.257356029555545
20
-56.576388921687617
30
0
10
22.277827964722245
20
-56.526069697722356
30
0
10
22.297923076701707
20
-56.475340077037913
30
0
10
22.324279071402636
20
-56.407000145013811
30
0
10
22.356297035721472
20
-56.320543530893552
30
0
10
22.393183859643262
20
-56.215416138313842
30
0
10
22.428653750105411
20
-56.108685656073064
30
0
10
22.462736940052707
20
-56.000364846095742
30
0
10
22.495463898100674
20
-55.890465896498853
30
0
10
22.53754104103848
20
-55.741103462452124
30
0
10
22.586851952233577
20
-55.550453563553752
30
0
10
22.640791252978048
20
-55.316703585552254
30
0
10
22.690032407909371
20
-55.076951367405997
30
0
10
22.734819234003947
20
-54.831295693006624
30
0
10
22.789451505613869
20
-54.492698325321953
30
0
10
22.823611953313247
20
-54.235149914883749
30
0
10
22.844000000000001
20
-54.061500000000002
30
0
0
SPLINE
5
106
100
AcDbEntity
8
0
100
AcDbSpline
70
0
71
3
72
89
73
85
74
0
42
0.000000001
43
0.0000000001
44
0.0000000001
40
0
40
0
40
0
40
0
40
2.7747772488903222e-05
40
5.5702885737091639e-05
40
0.00011161685325943922
40
0.00022345975077872713
40
0.00033532259517091807
40
0.00044720538268910328
40
0.00067103077195567124
40
0.0008949358887697012
40
0.0013429851837677544
40
0.0017913530289962311
40
0.0022400391842774406
40
0.0026890434092639659
40
0.0035880050956786278
40
0.0044882361726275317
40
0.0053897347113425597
40
0.0071965263642963483
40
0.0090083646549507027
40
0.010825234060012776
40
0.012647119015830125
40
0.014474003919020059
40
0.018142710352142849
40
0.02183122838353814
40
0.025539431817046005
40
0.0292671938774814
40
0.036780879665948653
40
0.044371265152098334
40
0.05203731698287789
40
0.059777994073322967
40
0.067592248048262527
40
0.075479023653444458
40
0.091465861487292757
40
0.10772996925528923
40
0.1242626929548246
40
0.14105529958263985
40
0.15809898505292555
40
0.17538488115978518
40
0.19290406171751945
40
0.22860620931012565
40
0.26513317000324166
40
0.30241192625843982
40
0.34036892787057232
40
0.37893017574215793
40
0.41802128992329995
40
0.49749369790244258
40
0.57818577685228112
40
0.65949335084995309
40
0.74080966659197223
40
0.82152597167134966
40
0.90103193979581575
40
0.97871598897740264
40
1.0539655233874485
40
1.1947063394664683
40
1.3183399450367246
40
1.4199436503015808
40
1.4609444360035662
40
1.4945893092942646
40
1.5202616215364493
40
1.5299153149371958
40
1.5373445412721665
40
1.5531485088871133
40
1.56904226369652
40
1.6010955109622191
40
1.666248106875845
40
1.732763348326549
40
1.8006021139758752
40
1.8697249005759973
40
1.9400918664793882
40
2.0843971307214808
40
2.2331941729479095
40
2.3861553459910376
40
2.5429502348148172
40
2.7032461858331569
40
2.8667087287914219
40
3.0330019178204886
40
3.3727303724528657
40
3.5454889957851252
40
3.8072901955250744
40
4.0712672794267384
40
4.6011539425206998
40
4.7771073398345161
40
5.125960622602272
40
5.4684817839771132
40
5.4684817839771132
40
5.4684817839771132
40
5.4684817839771132
10
22.843999999999998
20
-54.061500000000009
30
0
10
22.843997887072298
20
-54.061407531562367
30
0
10
22.844038752219319
20
-54.061224057655494
30
0
10
22.844073329641283
20
-54.060854154922005
30
0
10
22.844156103322241
20
-54.060206613741649
30
0
10
22.844262722171674
20
-54.059280891998249
30
0
10
22.844395557388442
20
-54.058170104072829
30
0
10
22.844570870550989
20
-54.056688561130038
30
0
10
22.844790449956726
20
-54.0548361404662
30
0
10
22.845141144341248
20
-54.05187087824639
30
0
10
22.845579003604758
20
-54.048162226732259
30
0
10
22.846103297492867
20
-54.043709309107939
30
0
10
22.8466266100742
20
-54.039253070142024
30
0
10
22.847323276838853
20
-54.03330488867158
30
0
10
22.848191624149656
20
-54.02586137697029
30
0
10
22.849229302717887
20
-54.016919077678011
30
0
10
22.850608554269947
20
-54.004970011265158
30
0
10
22.852322682089866
20
-53.990000734892405
30
0
10
22.854362385187411
20
-53.971997577181973
30
0
10
22.856386309913418
20
-53.953942011828929
30
0
10
22.858394489269568
20
-53.935834224586571
30
0
10
22.861054731357449
20
-53.91158813456039
30
0
10
22.864340579700833
20
-53.881151257006159
30
0
10
22.868215802427578
20
-53.844470602942692
30
0
10
22.87202883846744
20
-53.807585523605979
30
0
10
22.877043321998379
20
-53.758006258350896
30
0
10
22.883155410022518
20
-53.695531538922324
30
0
10
22.890226565653414
20
-53.619961020079089
30
0
10
22.897055351194339
20
-53.543608528565947
30
0
10
22.903643868032969
20
-53.46648597060171
30
0
10
22.909994229721708
20
-53.388605226364149
30
0
10
22.918183334855541
20
-53.283296721532139
30
0
10
22.927823453168745
20
-53.14985082783145
30
0
10
22.938422232255384
20
-52.987583188403221
30
0
10
22.948119592640801
20
-52.822568635591281
30
0
10
22.956932339835308
20
-52.654902346247383
30
0
10
22.964877236891468
20
-52.484679435347807
30
0
10
22.97197115512839
20
-52.311994996130963
30
0
10
22.980369787147943
20
-52.077120110476976
30
0
10
22.988778121730409
20
-51.778072165950412
30
0
10
22.995678705390304
20
-51.413106660534957
30
0
10
22.999585047196526
20
-51.040580660293756
30
0
10
23.000631026261516
20
-50.661255314922329
30
0
10
22.998950942866013
20
-50.275891349187091
30
0
10
22.993221398372093
20
-49.752170355480025
30
0
10
22.979865060835397
20
-49.088103417408782
30
0
10
22.955223443579818
20
-48.28356155450016
30
0
10
22.922942491259693
20
-47.473140791574352
30
0
10
22.884091779617638
20
-46.662929941779801
30
0
10
22.839741558756089
20
-45.859017521880659
30
0
10
22.790963794514255
20
-45.067493120374507
30
0
10
22.738832634346284
20
-44.294446348404712
30
0
10
22.667854043214103
20
-43.318104820530309
30
0
10
22.577923247092784
20
-42.189586577385604
30
0
10
22.471416829530888
20
-40.974307648645507
30
0
10
22.388024011237206
20
-40.090767635143003
30
0
10
22.33007503818213
20
-39.506134013821573
30
0
10
22.29616779365076
20
-39.173463883108063
30
0
10
22.272249363573103
20
-38.944808246148938
30
0
10
22.257118994429458
20
-38.803096186057367
30
0
10
22.245303914669122
20
-38.694111761840759
30
0
10
22.23099721111112
20
-38.564475551436104
30
0
10
22.207340068486214
20
-38.353293167929408
30
0
10
22.164335208437443
20
-37.978754583081205
30
0
10
22.099255628104221
20
-37.436907453384578
30
0
10
22.015693109152494
20
-36.777152108269114
30
0
10
21.926437030384413
20
-36.104790852265658
30
0
10
21.831670758026569
20
-35.420220583342996
30
0
10
21.697083862991342
20
-34.483856540575097
30
0
10
21.515945953058623
20
-33.285890913932249
30
0
10
21.281316579194332
20
-31.817627019232514
30
0
10
21.029107810706449
20
-30.31005575835318
30
0
10
20.76079238041239
20
-28.76635154738613
30
0
10
20.477841649562201
20
-27.18968828720303
30
0
10
20.181730743369293
20
-25.583240069581077
30
0
10
19.768385477856366
20
-23.390235810304642
30
0
10
19.338009600235385
20
-21.168928908353955
30
0
10
18.838680428470557
20
-18.636730049112739
30
0
10
18.383292068995818
20
-16.353236894240641
30
0
10
17.690062144002017
20
-12.903313885355935
30
0
10
17.051297562773193
20
-9.734323730973264
30
0
10
16.364455929607786
20
-6.2864241922726629
30
0
10
15.806473192711527
20
-3.4496810169435497
30
0
10
15.373556763374669
20
-1.1861066836729164
30
0
10
15.163360612952154
20
-0.063885037706260084
30
0
0
SPLINE
5
107
100
AcDbEntity
8
0
100
AcDbSpline
70
0
71
3
72
49
73
45
74
0
42
0.000000001
43
0.0000000001
44
0.0000000001
40
0
40
0
40
0
40
0
40
0.00030809159285902921
40
0.00061673245210662974
40
0.0012339551552785098
40
0.0024681645647436383
40
0.0037020594344620052
40
0.0049356399116958606
40
0.0074018582775837987
40
0.0098668208407937698
40
0.014792983270150684
40
0.019714136627236756
40
0.024630290338113019
40
0.029541453829178426
40
0.039348847844652132
40
0.049136394105941235
40
0.058904168036457885
40
0.078380700506487516
40
0.097779048869860358
40
0.11709981671338032
40
0.13634360771392556
40
0.15551102563927627
40
0.19361915673083191
40
0.23142904300479947
40
0.26894551796008626
40
0.30617341662798325
40
0.37978282303321126
40
0.45229598330710463
40
0.52375163514726153
40
0.59418854276984145
40
0.66364549738909329
40
0.73216131757970859
40
0.86652484871839819
40
0.99759034317790785
40
1.1256693386286951
40
1.251073792926902
40
1.3741160548533957
40
1.6143636683436535
40
1.8489181740375522
40
2.0802865484551161
40
2.3109751403864265
40
2.5434866599215855
40
2.6612070222997009
40
3.0239541075825289
40
3.0239541075825289
40
3.0239541075825289
40
3.0239541075825289
10
15.16336061295215
20
-0.063885037706259806
30
0
10
15.163183843209307
20
-0.062873393550487308
30
0
10
15.162772179307494
20
-0.060858897241738194
30
0
10
15.162009078431149
20
-0.056817204314748945
30
0
10
15.160645084971096
20
-0.049747269403904455
30
0
10
15.158711793568461
20
-0.039646227497629818
30
0
10
15.156386294556945
20
-0.027528389524522745
30
0
10
15.153289449411467
20
-0.01137695942808159
30
0
10
15.149419924693836
20
0.0088046327869981383
30
0
10
15.143234769780992
20
0.041075046033385715
30
0
10
15.135512315578515
20
0.081382880169277499
30
0
10
15.126257686999889
20
0.12971640867054152
30
0
10
15.117017643826991
20
0.17800182505158496
30
0
10
15.104723278034806
20
0.24228576610836036
30
0
10
15.089391696413283
20
0.32252111205689188
30
0
10
15.071042662702654
20
0.41866147046210067
30
0
10
15.046679315253225
20
0.54646618257102397
30
0
10
15.016369627583099
20
0.70575024351131821
30
0
10
14.980192436983469
20
0.89633247211551415
30
0
10
14.944245646015709
20
1.0861687577386687
30
0
10
14.908528446309175
20
1.2752650511654673
30
0
10
14.861303835047785
20
1.52591963823142
30
0
10
14.802838915980036
20
1.8374322514162267
30
0
10
14.733447069241713
20
2.2091253348448361
30
0
10
14.664954203681939
20
2.5780012741938547
30
0
10
14.57516195468202
20
3.0642935001343408
30
0
10
14.46510430858606
20
3.6654710868611846
30
0
10
14.33601984665864
20
4.3791524827115547
30
0
10
14.210376486120795
20
5.0827079679964768
30
0
10
14.088122568602001
20
5.776518346187971
30
0
10
13.969206398211252
20
6.460964532682155
30
0
10
13.816033572055961
20
7.3557370832949704
30
0
10
13.632408579676836
20
8.4536424273440112
30
0
10
13.42312430548442
20
9.7485392315524706
30
0
10
13.225960732109703
20
11.015122584523031
30
0
10
13.040506731677473
20
12.256440003831404
30
0
10
12.810129064975637
20
13.869057316439438
30
0
10
12.547881983794261
20
15.844609565674359
30
0
10
12.271120740647902
20
18.182264378838358
30
0
10
12.03156645339323
20
20.491995478492619
30
0
10
11.825911665731741
20
22.798147813844984
30
0
10
11.680621872819366
20
24.729154736165036
30
0
10
11.525013694249838
20
27.100658608048871
30
0
10
11.439918373601328
20
28.700059203545166
30
0
10
11.384465444841201
20
29.907943926813537
30
0
0
SPLINE
5
108
100
AcDbEntity
8
0
100
AcDbSpline
70
0
71
3
72
44
73
40
74
0
42
0.000000001
43
0.0000000001
44
0.0000000001
40
0
40
0
40
0
40
0
40
0.00033865691339684601
40
0.00067761779853841176
40
0.001355514241004027
40
0.0027112054712719268
40
0.0040667605081906094
40
0.0054221785669898853
40
0.0081326006100601572
40
0.010842465323032648
40
0.016260497635916492
40
0.021676225281853395
40
0.02708959802576609
40
0.032500565629296818
40
0.043315084384482276
40
0.054119379637985666
40
0.064913049367453596
40
0.086466903454256158
40
0.10797342995416472
40
0.1294294109346964
40
0.15083162772100261
40
0.17217686091790421
40
0.21468349240900547
40
0.25692353990203098
40
0.29887122436175761
40
0.34050075708768041
40
0.42270214901797887
40
0.50332125290824692
40
0.58215146123845485
40
0.65898605530564436
40
0.73361821628286694
40
0.80584103493957704
40
0.94223054502067116
40
1.0664978829921481
40
1.1769852761369641
40
1.2720341258188472
40
1.3499851387502628
40
1.4091784347695713
40
1.4479536410633838
40
1.4479536410633838
40
1.4479536410633838
40
1.4479536410633838
10
11.384465444841204
20
29.907943926813545
30
0
10
11.384431579843517
20
29.909072275112631
30
0
10
11.384318098318378
20
29.911328343643774
30
0
10
11.384139021333633
20
29.915843129102985
30
0
10
11.383803427830358
20
29.923744537145613
30
0
10
11.383336167632457
20
29.935031993651222
30
0
10
11.382771242512471
20
29.948575770789564
30
0
10
11.382020850412857
20
29.966631499638208
30
0
10
11.381084248439526
20
29.989197755091553
30
0
10
11.379590326547122
20
30.025294584133697
30
0
10
11.377730730415296
20
30.070401684460272
30
0
10
11.375511662206442
20
30.124513311957969
30
0
10
11.373305176805687
20
30.178601885491283
30
0
10
11.370380616730705
20
30.250672102368394
30
0
10
11.366756259465745
20
30.340698450649896
30
0
10
11.362455856132289
20
30.448654447523687
30
0
10
11.356790965839153
20
30.592382253190017
30
0
10
11.349833206182161
20
30.771760888137042
30
0
10
11.341674321220074
20
30.986660625565463
30
0
10
11.33370793691981
20
31.201061779159829
30
0
10
11.325931799367599
20
31.414931918728811
30
0
10
11.315828803192346
20
31.698932569666866
30
0
10
11.303665384012922
20
32.052363185242328
30
0
10
11.289772902824311
20
32.474449312252759
30
0
10
11.276587102094119
20
32.893633011265649
30
0
10
11.259994883724783
20
33.445979369785015
30
0
10
11.240930923650485
20
34.1272136642269
30
0
10
11.220490849380804
20
34.932457462251953
30
0
10
11.202442268006461
20
35.719864421592177
30
0
10
11.186641277506981
20
36.487358982025469
30
0
10
11.172943839538021
20
37.232865673817358
30
0
10
11.157585112660817
20
38.176889594207928
30
0
10
11.142795084527782
20
39.286392862102211
30
0
10
11.130770470235507
20
40.523484255981614
30
0
10
11.123681505334734
20
41.622808462296028
30
0
10
11.120377937454881
20
42.567761460797861
30
0
10
11.119723338030084
20
43.34173915562647
30
0
10
11.120556472691955
20
43.928137418604301
30
0
10
11.121630799871873
20
44.254697407300831
30
0
10
11.122098722932092
20
44.383947247938977
30
0
0
SPLINE
5
109
100
AcDbEntity
8
0
100
AcDbSpline
70
0
71
3
72
57
73
53
74
0
42
0.000000001
43
0.0000000001
44
0.0000000001
40
0
40
0
40
0
40
0
40
0.22194259109996839
40
0.83555083009938613
40
1.7624916085700679
40
2.924431818081723
40
3.5690476130933608
40
4.2430383502039062
40
4.9366123908594028
40
5.6399780965061286
40
6.3433438285903678
40
7.0369179485581528
40
7.7109088178557723
40
8.3555247979294993
40
8.9609742502253802
40
9.2459516414086309
40
9.5174655361896967
40
9.7742919797494849
40
10.015207017268704
40
10.238986693928076
40
10.444407054908485
40
10.630244145390648
40
10.795274010555303
40
10.938272695583306
40
11.001127859665052
40
11.058016245655388
40
11.10878485920194
40
11.153280705952305
40
11.191350791554079
40
11.222842121654876
40
11.247601701902267
40
11.265476537943851
40
11.271784366152339
40
11.276313635427227
40
11.279045221474465
40
11.279960000000003
40
11.281098105604865
40
11.282234396607748
40
11.284501672552002
40
11.286762283977273
40
11.289016651024452
40
11.293507972221306
40
11.297978983754048
40
11.302432525184868
40
11.306871235004781
40
11.315711675773757
40
11.324520443567392
40
11.333313769475176
40
11.342107020696744
40
11.350915562101555
40
11.368627642105405
40
11.386621529879239
40
11.386621529879239
40
11.386621529879239
40
11.386621529879239
10
-28.035
20
59.981800000000007
30
0
10
-28.035
20
59.24199136300011
30
0
10
-28.035
20
56.456821929335483
30
0
10
-28.034999999999997
20
50.581849900768596
30
0
10
-28.034999999999989
20
41.573552477496072
30
0
10
-28.035000000000014
20
32.461896534182848
30
0
10
-28.034999999999997
20
24.193407395403366
30
0
10
-28.035000000000014
20
17.48613881947778
30
0
10
-28.034999999999997
20
10.583037208101878
30
0
10
-28.034999999999997
20
3.5820189468136787
30
0
10
-28.035
20
-3.4189995788488172
30
0
10
-28.034999999999997
20
-10.322101983347633
30
0
10
-28.035000000000004
20
-17.029371881144733
30
0
10
-28.035000000000014
20
-23.442892886702154
30
0
10
-28.034999999999933
20
-28.55970229854502
30
0
10
-28.035000000000103
20
-32.432838092745669
30
0
10
-28.03499999999967
20
-35.143897191159354
30
0
10
-28.035000000001116
20
-37.70808177735961
30
0
10
-28.034999999996224
20
-40.113152303154216
30
0
10
-28.035000000012545
20
-42.346869220350854
30
0
10
-28.034999999959041
20
-44.396992980757453
30
0
10
-28.035000000130715
20
-46.251284036181204
30
0
10
-28.034999999595076
20
-47.89750283843162
30
0
10
-28.035000000991623
20
-49.133781886010354
30
0
10
-28.03499999855994
20
-50.009589336348498
30
0
10
-28.035000004709563
20
-50.57796321506585
30
0
10
-28.034999985242699
20
-51.085139369392806
30
0
10
-28.035000044864631
20
-51.529587855611155
30
0
10
-28.034999868802188
20
-51.909778730780936
30
0
10
-28.035000363108189
20
-52.224182049697006
30
0
10
-28.034999076549958
20
-52.471267873383368
30
0
10
-28.035001777010066
20
-52.63440868336442
30
0
10
-28.034998112649141
20
-52.730115135246507
30
0
10
-28.035004194806987
20
-52.775344069063685
30
0
10
-28.034993389263118
20
-52.802596201937916
30
0
10
-28.035008136677977
20
-52.818544408500884
30
0
10
-28.034959693700564
20
-52.829175082160155
30
0
10
-28.034698560338363
20
-52.844312067549531
30
0
10
-28.034059958215707
20
-52.86318352805749
30
0
10
-28.032782119965596
20
-52.885756906082946
30
0
10
-28.030411007399056
20
-52.915686195356258
30
0
10
-28.026201310381509
20
-52.952851325471677
30
0
10
-28.019178379364035
20
-52.997030573462325
30
0
10
-28.010223423294711
20
-53.040681274626706
30
0
10
-27.995775201033382
20
-53.098013657983032
30
0
10
-27.973046842754229
20
-53.16815445270251
30
0
10
-27.938542947500416
20
-53.249383338840133
30
0
10
-27.897110612156951
20
-53.327129707657193
30
0
10
-27.849012390894011
20
-53.400942963945319
30
0
10
-27.77625735422605
20
-53.493644228801912
30
0
10
-27.669433779309287
20
-53.597794838654089
30
0
10
-27.57013145721826
20
-53.664751743970257
30
0
10
-27.517600000000002
20
-53.6937
30
0
0
LINE
5
110
100
AcDbEntity
8
0
100
AcDbLine
10
-27.517600000000002
20
-53.6937
30
0
11
-17.506800000000002
21
-59.209800000000001
31
0
0
SPLINE
5
111
100
AcDbEntity
8
0
100
AcDbSpline
70
0
71
3
72
44
73
40
74
0
42
0.000000001
43
0.0000000001
44
0.0000000001
40
0
40
0
40
0
40
0
40
2.0987478533030033e-05
40
4.1993549302968945e-05
40
8.400338815065184e-05
40
0.00016801386538296202
40
0.00025201209908300544
40
0.00033599811481156716
40
0.00050393357986659054
40
0.00067182047893213684
40
0.0010074492753465473
40
0.0013428862404274138
40
0.0016781329855856389
40
0.0020131911137644342
40
0.0026827469617834027
40
0.0033515673679359367
40
0.004019664852602885
40
0.0053537331056458829
40
0.0066850566144615563
40
0.0080137307711965686
40
0.0093398488843351828
40
0.010663502204326583
40
0.013303711686316734
40
0.015935107248412614
40
0.018558347790650399
40
0.021174062295786993
40
0.026384841241272584
40
0.031572376675870456
40
0.036740754584862277
40
0.041893715368052302
40
0.047034706123844507
40
0.052166935787361528
40
0.062413749035507088
40
0.072660631724200578
40
0.082930651747685366
40
0.093248776785671769
40
0.10364372934884045
40
0.11414970009637543
40
0.12480783362211012
40
0.12480783362211012
40
0.12480783362211012
40
0.12480783362211012
10
-17.506799999999998
20
-59.209800000000001
30
0
10
-17.506739695450801
20
-59.20976453847527
30
0
10
-17.506598129069456
20
-59.209739541835361
30
0
10
-17.506336843918472
20
-59.209641366894331
30
0
10
-17.505869377637474
20
-59.209491823216126
30
0
10
-17.505207101563901
20
-59.209266067853022
30
0
10
-17.504410397254965
20
-59.208999546135317
30
0
10
-17.503349450943869
20
-59.208641624996936
30
0
10
-17.502023842216886
20
-59.20819326410809
30
0
10
-17.49990498384593
20
-59.207472279961458
30
0
10
-17.497259752652397
20
-59.206564940624062
30
0
10
-17.494090498809925
20
-59.205465988952582
30
0
10
-17.490926710507086
20
-59.204357132340526
30
0
10
-17.486716820984125
20
-59.202865873105715
30
0
10
-17.481468158983716
20
-59.200977115518761
30
0
10
-17.475190144027557
20
-59.19867063848902
30
0
10
-17.466853569512477
20
-59.195544777104267
30
0
10
-17.456488350415878
20
-59.19153996784086
30
0
10
-17.444134006936174
20
-59.186576995444838
30
0
10
-17.431871077186248
20
-59.181460687369224
30
0
10
-17.419700511424956
20
-59.176192375326536
30
0
10
-17.403612109962097
20
-59.168973626087826
30
0
10
-17.383734320190744
20
-59.159576732595355
30
0
10
-17.36024531182747
20
-59.14770403639281
30
0
10
-17.337148859292313
20
-59.135255317709124
30
0
10
-17.306928657708305
20
-59.117927127958758
30
0
10
-17.270154194989793
20
-59.094876160644425
30
0
10
-17.227667251540439
20
-59.065048385460244
30
0
10
-17.186937473443585
20
-59.033173569397661
30
0
10
-17.148027394568757
20
-58.999338444428169
30
0
10
-17.110997202219384
20
-58.963627272059512
30
0
10
-17.064246683893685
20
-58.913664053480744
30
0
10
-17.010740807788146
20
-58.846869720461335
30
0
10
-16.955043624339005
20
-58.760560471051818
30
0
10
-16.908354947225675
20
-58.668788769841228
30
0
10
-16.871174758058615
20
-58.572240091066696
30
0
10
-16.844000528037085
20
-58.47158886512873
30
0
10
-16.827335024165912
20
-58.367532789106974
30
0
10
-16.823599999999999
20
-58.296927111752453
30
0
10
-16.823599999999999
20
-58.261400000000009
30
0
0
LINE
5
112
100
AcDbEntity
8
0
100
AcDbLine
10
-16.823599999999999
20
-58.261400000000009
30
0
11
-16.823599999999999
21
-56.4818
31
0
0
SPLINE
5
113
100
AcDbEntity
8
0
100
AcDbSpline
70
0
71
3
72
38
73
34
74
0
42
0.000000001
43
0.0000000001
44
0.0000000001
40
0
40
0
40
0
40
0
40
2.5895915452312963e-05
40
5.1803070620324711e-05
40
0.00010361528649322808
40
0.0002072313547993034
40
0.000310836307245537
40
0.00041443018070191738
40
0.00062158481012958007
40
0.00082869556455579291
40
0.0012427863974429467
40
0.0016567052321555141
40
0.0020704543850151333
40
0.0024840361575233934
40
0.0033107049315445961
40
0.0041367314406759153
40
0.0049621335764821707
40
0.0066111211683351906
40
0.0082578204842914428
40
0.0099023668582665057
40
0.011544892385912889
40
0.013185526073017479
40
0.016461509407152925
40
0.019731403579083096
40
0.022996145194157328
40
0.026256636699245575
40
0.032767477901250522
40
0.039271537389654054
40
0.045775365018893718
40
0.052285502176506418
40
0.058808664865637322
40
0.065351924111443652
40
0.078522682221453546
40
0.078522682221453546
40
0.078522682221453546
40
0.078522682221453546
10
-16.823599999999999
20
-56.4818
30
0
10
-16.823588701340107
20
-56.481714422935134
30
0
10
-16.823605081013614
20
-56.481540667941303
30
0
10
-16.823596934546117
20
-56.481195810333574
30
0
10
-16.823601466648316
20
-56.480591030314244
30
0
10
-16.823597325743901
20
-56.479727771186106
30
0
10
-16.823595541628592
20
-56.478691665972278
30
0
10
-16.823590248212035
20
-56.477310515901166
30
0
10
-16.823581463359094
20
-56.475584330675133
30
0
10
-16.823561416146031
20
-56.472823217781986
30
0
10
-16.82352576075829
20
-56.469372988290765
30
0
10
-16.823465832229584
20
-56.465234215181169
30
0
10
-16.823388838811116
20
-56.461097419896696
30
0
10
-16.823263460469747
20
-56.455585500452905
30
0
10
-16.823064170768131
20
-56.448700709618329
30
0
10
-16.822756985674562
20
-56.44044600246248
30
0
10
-16.822257150283811
20
-56.429455872687825
30
0
10
-16.821463323138527
20
-56.415741185613427
30
0
10
-16.820240943027983
20
-56.39931844184165
30
0
10
-16.818750384456592
20
-56.382939484904171
30
0
10
-16.81699290318582
20
-56.3666073129259
30
0
10
-16.814296898107465
20
-56.344909555355862
30
0
10
-16.810266316572196
20
-56.317915078414778
30
0
10
-16.804379573769467
20
-56.285741509184447
30
0
10
-16.797455183120402
20
-56.253827513444051
30
0
10
-16.786859155978604
20
-56.211679153261827
30
0
10
-16.77106536132278
20
-56.159733921082314
30
0
10
-16.748114567649345
20
-56.098806118690518
30
0
10
-16.721253026400536
20
-56.039499137140261
30
0
10
-16.690563058341677
20
-55.98200934957088
30
0
10
-16.656120161354611
20
-55.926524980681776
30
0
10
-16.605218928899038
20
-55.855355300957442
30
0
10
-16.56174377457652
20
-55.80574377457652
30
0
10
-16.5307
20
-55.774699999999996
30
0
0
SPLINE
5
114
100
AcDbEntity
8
0
100
AcDbSpline
70
0
71
3
72
38
73
34
74
0
42
0.000000001
43
0.0000000001
44
0.0000000001
40
0
40
0
40
0
40
0
40
2.5889647820125027e-05
40
5.1790537707887795e-05
40
0.00010359023874547088
40
0.00020718134032194708
40
0.00031076141002082074
40
0.00041433048477420198
40
0.00062143576911959097
40
0.00082849751538392183
40
0.0012424913441480986
40
0.0016563145279956267
40
0.0020699693867193493
40
0.0024834582250975405
40
0.0033099452195328033
40
0.004135795423522699
40
0.0049610267477304846
40
0.0066096892323312534
40
0.0082560855682615036
40
0.0099003511320477095
40
0.011542618014522454
40
0.013183015170245236
40
0.01645859119717015
40
0.019728164805732359
40
0.022992670630870172
40
0.026253008513970968
40
0.032763774915266428
40
0.03926804304426073
40
0.045772323047489821
40
0.052283110317056104
40
0.058807069931292831
40
0.065351218448296541
40
0.07852380474907257
40
0.07852380474907257
40
0.07852380474907257
40
0.07852380474907257
10
-16.5307
20
-55.774699999999996
30
0
10
-16.530631522436533
20
-55.774647480378121
30
0
10
-16.53052031369382
20
-55.774513025147321
30
0
10
-16.530270821091044
20
-55.774274931721799
30
0
10
-16.529846601526401
20
-55.773844070361072
30
0
10
-16.529233563930902
20
-55.773236568101339
30
0
10
-16.528500034898034
20
-55.772505174231355
30
0
10
-16.527520160674186
20
-55.771532272252585
30
0
10
-16.526293959825217
20
-55.770317855900551
30
0
10
-16.524328346840555
20
-55.768379579298596
30
0
10
-16.521864644281987
20
-55.76596504695226
30
0
10
-16.518897120835522
20
-55.763080792855249
30
0
10
-16.515918905528022
20
-55.760210002873563
30
0
10
-16.51193454022399
20
-55.756401033526409
30
0
10
-16.506927537843936
20
-55.751673530683838
30
0
10
-16.500875922253215
20
-55.746053621276424
30
0
10
-16.492754549127007
20
-55.738635616646889
30
0
10
-16.482499327339546
20
-55.729498871935903
30
0
10
-16.470026647365451
20
-55.71875023269827
30
0
10
-16.457394955907823
20
-55.708222172738573
30
0
10
-16.444607270016757
20
-55.697915925110159
30
0
10
-16.427362567356106
20
-55.68447904033593
30
0
10
-16.405429109985789
20
-55.668240328309899
30
0
10
-16.378520884366147
20
-55.649651889958221
30
0
10
-16.351061363797122
20
-55.631980701091344
30
0
10
-16.313768108624199
20
-55.609668388519538
30
0
10
-16.265870327417701
20
-55.584103758226632
30
0
10
-16.206557776958267
20
-55.557248310487267
30
0
10
-16.145623330091109
20
-55.53430435535514
30
0
10
-16.083264631193856
20
-55.515352598615344
30
0
10
-16.019668734077669
20
-55.50047280618795
30
0
10
-15.93333990332656
20
-55.486139554834999
30
0
10
-15.867508621002585
20
-55.481800000000007
30
0
10
-15.823599999999999
20
-55.481800000000007
30
0
0
LINE
5
115
100
AcDbEntity
8
0
100
AcDbLine
10
-15.823599999999999
20
-55.481800000000007
30
0
11
-11.154500000000001
21
-55.481800000000007
31
0
0
SPLINE
5
116
100
AcDbEntity
8
0
100
AcDbSpline
70
0
71
3
72
38
73
34
74
0
42
0.000000001
43
0.0000000001
44
0.0000000001
40
0
40
0
40
0
40
0
40
2.5886160674554112e-05
40
5.1783569273829291e-05
40
0.0001035763300894662
40
0.00020715364038327434
40
0.00031072003713777946
40
0.00041427555665792193
40
0.00062135408126477287
40
0.0008283895311334017
40
0.0012423321380589135
40
0.00165610589405609
40
0.002069713079774476
40
0.002483155961204827
40
0.0033095560426685084
40
0.0041353257415785985
40
0.004960482671623842
40
0.0066090135883238657
40
0.0082552993860532577
40
0.0098994732860069878
40
0.011541665324553549
40
0.013182002504300901
40
0.01645749617431436
40
0.019727026066847959
40
0.022991515031241097
40
0.026251852883022911
40
0.032762639486009389
40
0.039266919268079847
40
0.045771187618291222
40
0.052281954686167746
40
0.058805929674842349
40
0.065350202180676345
40
0.07852377109678578
40
0.07852377109678578
40
0.07852377109678578
40
0.07852377109678578
10
-11.154500000000001
20
-55.481800000000007
30
0
10
-11.154414454471928
20
-55.481811289105316
30
0
10
-11.154240765903825
20
-55.481794923278329
30
0
10
-11.153896037456777
20
-55.48180306284987
30
0
10
-11.153291484402061
20
-55.481798534522099
30
0
10
-11.152428547593036
20
-55.481802671801645
30
0
10
-11.151392828010273
20
-55.481804454138512
30
0
10
-11.150012187948718
20
-55.48180974260147
30
0
10
-11.148286635246558
20
-55.481818519191819
30
0
10
-11.145526521026358
20
-55.481838547675224
30
0
10
-11.142077519974144
20
-55.481874169938628
30
0
10
-11.137940197137393
20
-55.481934043084507
30
0
10
-11.133804820592918
20
-55.48201096586881
30
0
10
-11.128294730891803
20
-55.48213623049417
30
0
10
-11.121412150587563
20
-55.482335341626566
30
0
10
-11.113160004252853
20
-55.482642254541489
30
0
10
-11.102173053892262
20
-55.483141657274288
30
0
10
-11.088462053224667
20
-55.483934814410425
30
0
10
-11.072043389252233
20
-55.485156188149745
30
0
10
-11.055668072438943
20
-55.48664556097863
30
0
10
-11.039339117191902
20
-55.48840169339104
30
0
10
-11.017644877412589
20
-55.491095733550111
30
0
10
-10.990653870484914
20
-55.49512354623775
30
0
10
-10.95848336714171
20
-55.501006519609888
30
0
10
-10.926571129588208
20
-55.507926876741649
30
0
10
-10.884422997172909
20
-55.518517489720111
30
0
10
-10.832475683405994
20
-55.534304532680594
30
0
10
-10.771542954016507
20
-55.557248007442581
30
0
10
-10.712228848119915
20
-55.584104332124646
30
0
10
-10.654730786282972
20
-55.61479224800631
30
0
10
-10.599238029970586
20
-55.649237343831224
30
0
10
-10.528057073418843
20
-55.700149516660467
30
0
10
-10.478442120707749
20
-55.743641323494543
30
0
10
-10.4474
20
-55.774699999999996
30
0
0
SPLINE
5
117
100
AcDbEntity
8
0
100
AcDbSpline
70
0
71
3
72
38
73
34
74
0
42
0.000000001
43
0.0000000001
44
0.0000000001
40
0
40
0
40
0
40
0
40
2.5889645575828885e-05
40
5.1790528728646644e-05
40
0.00010359020282479269
40
0.00020718119670712023
40
0.00031076108706632681
40
0.00041432991096865561
40
0.00062143447966198681
40
0.00082849522587684788
40
0.0012424862061123645
40
0.0016563054174697583
40
0.0020699551891784486
40
0.002483437835730194
40
0.0033099091743571036
40
0.0041357394266951907
40
0.004960946591021885
40
0.0066095485166070139
40
0.0082558686169469705
40
0.0099000431204964105
40
0.011542205033987746
40
0.01318248428982598
40
0.016457789980255749
40
0.019727054700501699
40
0.022991222924854407
40
0.026251205119103043
40
0.032761251675782629
40
0.039264871377597141
40
0.045768680205455374
40
0.052279284754315376
40
0.058803464127189668
40
0.065348349096744821
40
0.078524400096412691
40
0.078524400096412691
40
0.078524400096412691
40
0.078524400096412691
10
-10.4474
20
-55.774699999999996
30
0
10
-10.447347476844875
20
-55.774768474844038
30
0
10
-10.447213026762157
20
-55.774879687495641
30
0
10
-10.446974930846562
20
-55.775129178023889
30
0
10
-10.446544071165844
20
-55.775553398237051
30
0
10
-10.445936568131009
20
-55.776166433783416
30
0
10
-10.445205174542185
20
-55.776899960501822
30
0
10
-10.444232272805005
20
-55.777879829602632
30
0
10
-10.44301785691208
20
-55.779106021668341
30
0
10
-10.441079581608747
20
-55.781071614567288
30
0
10
-10.438665050884914
20
-55.783535282192148
30
0
10
-10.435780796736712
20
-55.786502750216293
30
0
10
-10.43291000670747
20
-55.789480894845809
30
0
10
-10.429101042326199
20
-55.793465140666768
30
0
10
-10.424373545413928
20
-55.798471956886658
30
0
10
-10.418753635589486
20
-55.804523300062954
30
0
10
-10.411335648785396
20
-55.812644216775887
30
0
10
-10.40219892392161
20
-55.822898736783522
30
0
10
-10.391450280977084
20
-55.835370410090462
30
0
10
-10.380922217204155
20
-55.848000916168118
30
0
10
-10.370615965670286
20
-55.860787254261581
30
0
10
-10.357179123160375
20
-55.878029904990839
30
0
10
-10.340940441956326
20
-55.899960490833124
30
0
10
-10.322351970836541
20
-55.926864977624106
30
0
10
-10.304680749798552
20
-55.954320504276644
30
0
10
-10.282368406076168
20
-55.991608251378167
30
0
10
-10.256803595895112
20
-56.039499432881826
30
0
10
-10.229947964232979
20
-56.098805190991861
30
0
10
-10.20700388277846
20
-56.159734977234173
30
0
10
-10.188052067431366
20
-56.222092173844771
30
0
10
-10.173172294633714
20
-56.285690742228439
30
0
10
-10.158838438371573
20
-56.372034454694017
30
0
10
-10.154499999999999
20
-56.437879830001101
30
0
10
-10.154499999999999
20
-56.4818
30
0
0
LINE
5
118
100
AcDbEntity
8
0
100
AcDbLine
10
-10.154499999999999
20
-56.4818
30
0
11
-10.154499999999999
21
-59.981800000000007
31
0
0
SPLINE
5
119
100
AcDbEntity
8
0
100
AcDbSpline
70
0
71
3
72
38
73
34
74
0
42
0.000000001
43
0.0000000001
44
0.0000000001
40
0
40
0
40
0
40
0
40
2.58861574997263e-05
40
5.1783556579202189e-05
40
0.00010357627934418346
40
0.00020715343776672544
40
0.00031071958213901743
40
0.00041427474937114452
40
0.00062135227204626728
40
0.00082838632760410993
40
0.0012423249875717943
40
0.0016560932846109374
40
0.0020696935374168767
40
0.0024831280497826596
40
0.0033095072314652547
40
0.0041352507332917728
40
0.0049603764620709855
40
0.0066088310918344167
40
0.008255023996325838
40
0.0098990905824611914
40
0.011541162997286728
40
0.013181370276511182
40
0.016456580927823716
40
0.019725809074798099
40
0.022989990801949797
40
0.026250027704502944
40
0.032760270937200034
40
0.039264135465009689
40
0.045768152869829416
40
0.052278841387665809
40
0.058802889117473597
40
0.06534733455856663
40
0.078521226740707994
40
0.078521226740707994
40
0.078521226740707994
40
0.078521226740707994
10
-10.154499999999999
20
-59.981800000000007
30
0
10
-10.154488702745756
20
-59.981885544441624
30
0
10
-10.154505080379925
20
-59.982059234529174
30
0
10
-10.15449693490595
20
-59.982403962044238
30
0
10
-10.154501466391014
20
-59.983008514909741
30
0
10
-10.154497325829226
20
-59.983871449976334
30
0
10
-10.154495541604724
20
-59.984907167116205
30
0
10
-10.154490248220169
20
-59.986287801777834
30
0
10
-10.154481463342812
20
-59.988013345290923
30
0
10
-10.154461416111818
20
-59.99077343822875
30
0
10
-10.154425760659965
20
-59.994222402957504
30
0
10
-10.154365832099375
20
-59.998359670543728
30
0
10
-10.15428883864768
20
-60.002494976580742
30
0
10
-10.154163460022163
20
-60.008004943008622
30
0
10
-10.153964169716257
20
-60.014887333313411
30
0
10
-10.15365698435453
20
-60.023139208502968
30
0
10
-10.1531571466626
20
-60.034125693182041
30
0
10
-10.152363314613098
20
-60.047835986848277
30
0
10
-10.151140932318974
20
-60.064253652693282
30
0
10
-10.149650371557579
20
-60.080627791987524
30
0
10
-10.14789288809753
20
-60.096955406580896
30
0
10
-10.145196858533573
20
-60.118647611476959
30
0
10
-10.141166230233187
20
-60.145635795298276
30
0
10
-10.1352794705879
20
-60.17780258804089
30
0
10
-10.128355063835688
20
-60.209710846537433
30
0
10
-10.11775884794636
20
-60.25185361576662
30
0
10
-10.101964711155695
20
-60.303794378362383
30
0
10
-10.079013828547502
20
-60.364719966301209
30
0
10
-10.05215222540048
20
-60.424028875293573
30
0
10
-10.021462223774654
20
-60.481524738784003
30
0
10
-9.9870193363814046
20
-60.537019330735362
30
0
10
-9.9361171543508267
20
-60.608209606937137
30
0
10
-9.8926428824499357
20
-60.657840561346099
30
0
10
-9.861600000000001
20
-60.688900000000004
30
0
0
SPLINE
5
120
100
AcDbEntity
8
0
100
AcDbSpline
70
0
71
3
72
38
73
34
74
0
42
0.000000001
43
0.0000000001
44
0.0000000001
40
0
40
0
40
0
40
0
40
2.5895617166967954e-05
40
5.1796512162458436e-05
40
0.00010359623405907428
40
0.00020718741971209221
40
0.00031076762943205453
40
0.00041433689956093384
40
0.00062144273848519383
40
0.00082850525363743202
40
0.0012425012454937764
40
0.0016563273936576713
40
0.0020699859811358916
40
0.0024834792763581181
40
0.0033099772345091582
40
0.0041358408896742267
40
0.0049610878781353278
40
0.0066097873364031187
40
0.0082562263867059418
40
0.009900538475263676
40
0.011542853881247761
40
0.013183299866634367
40
0.016458968727654132
40
0.019728619031190098
40
0.022993176173394463
40
0.026253532663208269
40
0.032764220268170843
40
0.039268237116930158
40
0.04577210142049401
40
0.052282344740269403
40
0.058805695083333512
40
0.065349257087421481
40
0.078521193673519951
40
0.078521193673519951
40
0.078521193673519951
40
0.078521193673519951
10
-9.861600000000001
20
-60.688900000000004
30
0
10
-9.8615314941428753
20
-60.688952515422827
30
0
10
-9.8614201788543472
20
-60.689086898011197
30
0
10
-9.8611705566552033
20
-60.689324887339438
30
0
10
-9.8607461007934099
20
-60.689755514204464
30
0
10
-9.8601327452523506
20
-60.690362697753883
30
0
10
-9.8593988289640411
20
-60.691093704642995
30
0
10
-9.858418443601014
20
-60.692066095877991
30
0
10
-9.8571916079476889
20
-60.693279878062405
30
0
10
-9.8552249900978044
20
-60.695217151668913
30
0
10
-9.8527600513782883
20
-60.697630450039277
30
0
10
-9.8497910777336948
20
-60.70051325361581
30
0
10
-9.8468114437480931
20
-60.703382624592962
30
0
10
-9.8428252256343125
20
-60.707189747191606
30
0
10
-9.8378159853747782
20
-60.71191501835645
30
0
10
-9.8317618108146938
20
-60.717532366685028
30
0
10
-9.8236371774989397
20
-60.724947126474845
30
0
10
-9.8133781799757216
20
-60.734080104610833
30
0
10
-9.8009014367552894
20
-60.744824666644647
30
0
10
-9.7882661213981734
20
-60.755349089442483
30
0
10
-9.775475234733932
20
-60.765652123646319
30
0
10
-9.758226815653293
20
-60.7790852636777
30
0
10
-9.736289719656039
20
-60.795320248094924
30
0
10
-9.7093785364846426
20
-60.81390566453986
30
0
10
-9.681917355801188
20
-60.831575140975588
30
0
10
-9.6446236556507081
20
-60.853886614027488
30
0
10
-9.5967280031150981
20
-60.879452814765713
30
0
10
-9.5374206478297587
20
-60.906313540167417
30
0
10
-9.476493345714287
20
-60.92926489803682
30
0
10
-9.4141426961293835
20
-60.948225115428201
30
0
10
-9.350554703930948
20
-60.963113348866997
30
0
10
-9.2642337507753627
20
-60.977456642964682
30
0
10
-9.1984064552869942
20
-60.9818
30
0
10
-9.1545000000000005
20
-60.9818
30
0
0
LINE
5
121
100
AcDbEntity
8
0
100
AcDbLine
10
11.12209872293209
20
44.383947247938984
30
0
11
11.122107201787605
21
44.38628927974294
31
0
0
LINE
5
122
100
AcDbEntity
8
0
100
AcDbLine
10
11.12209872293209
20
44.383947247938984
30
0
11
11.122098722932083
21
59.981800000000007
31
0
0
SPLINE
5
123
100
AcDbEntity
8
0
100
AcDbSpline
70
0
71
3
72
55
73
51
74
0
42
0.000000001
43
0.0000000001
44
0.0000000001
40
0.10000000000100043
40
0.10000000000100043
40
0.10000000000100043
40
0.10000000000100043
40
0.17899063133646842
40
0.60945915088695002
40
0.89705677081605584
40
1.218052870828201
40
1.5613146309087329
40
1.9157092310429995
40
2.2701038512163461
40
2.613365671414122
40
2.777342775267591
40
2.9343618716216726
40
3.083031357974535
40
3.2219596318243462
40
3.3497550906692748
40
3.4650261320074889
40
3.5663811533371574
40
3.652428552156449
40
3.6892770173428864
40
3.7217767259635313
40
3.7497537277056678
40
3.7730340722565741
40
3.7914438093035097
40
3.8048089885337468
40
3.8095455094948756
40
3.8129556596345568
40
3.8150176951636974
40
3.8157098722932092
40
3.8169521968963438
40
3.8181930140560847
40
3.8206702875815823
40
3.823142206681069
40
3.8256092312927059
40
3.8305299804409003
40
3.8354362733384075
40
3.8403312575844999
40
3.8452179071616301
40
3.8549745797661523
40
3.86473112842905
40
3.8745094492827801
40
3.8843328241865418
40
3.8942272740525374
40
3.9041257795261206
40
3.9139510397960122
40
3.923729602292727
40
3.9334852936655302
40
3.9432405440846638
40
3.953017761019384
40
3.9628407038583338
40
3.9727358107953776
40
3.9727358107953776
40
3.9727358107953776
40
3.9727358107953776
10
10.122098722922086
20
60.9818
30
0
10
9.8587966184705262
20
60.9818
30
0
10
8.160599448850693
20
60.981800000000007
30
0
10
5.5037435461338413
20
60.981799999999978
30
0
10
2.0402027478280678
20
60.981800000000028
30
0
10
-1.1326488522445433
20
60.981799999999993
30
0
10
-4.5281570530010198
20
60.981799999999964
30
0
10
-8.0349936542948406
20
60.981800000000177
30
0
10
-11.541830455979465
20
60.98179999999951
30
0
10
-14.413942270061435
20
60.981800000001343
30
0
10
-16.628135671412526
20
60.981799999997854
30
0
10
-18.193687959947223
20
60.981800000007595
30
0
10
-19.675744148469803
20
60.981799999974001
30
0
10
-21.060388211961584
20
60.981800000087183
30
0
10
-22.333704125405518
20
60.981799999715065
30
0
10
-23.481775863779148
20
60.981800000902609
30
0
10
-24.490687402077135
20
60.981799997255486
30
0
10
-25.238190353176279
20
60.981800006535465
30
0
10
-25.756175595296035
20
60.98179999085788
30
0
10
-26.080592847049971
20
60.981800028662761
30
0
10
-26.359783030325833
20
60.98179991531471
30
0
10
-26.592006640806936
20
60.981800236389731
30
0
10
-26.775524178611644
20
60.98179939395051
30
0
10
-26.897228965790365
20
60.981801174053977
30
0
10
-26.9689351384914
20
60.981798746392492
30
0
10
-27.002964152365116
20
60.981802796430664
30
0
10
-27.023512043019014
20
60.981795579012882
30
0
10
-27.036833811716775
20
60.981806496561447
30
0
10
-27.047418320447175
20
60.981751146569721
30
0
10
-27.063950511648812
20
60.981439408727184
30
0
10
-27.084571880650266
20
60.980673882411907
30
0
10
-27.109247756680688
20
60.979142591947344
30
0
10
-27.141992808681621
20
60.976298104748935
30
0
10
-27.182678292910026
20
60.971242636816555
30
0
10
-27.231039616302315
20
60.962801899247616
30
0
10
-27.278819819938491
20
60.952025479666652
30
0
10
-27.341595645577765
20
60.934602225046454
30
0
10
-27.418297675643764
20
60.907129086002698
30
0
10
-27.506710219208536
20
60.865343415784338
30
0
10
-27.590822692146642
20
60.815018407595815
30
0
10
-27.669973415669915
20
60.756424522752361
30
0
10
-27.743264084081424
20
60.690045115664681
30
0
10
-27.80964840413003
20
60.6167505347006
30
0
10
-27.86825802757205
20
60.537585492217133
30
0
10
-27.918585865027985
20
60.453470781507974
30
0
10
-27.960366970556439
20
60.365059185991463
30
0
10
-27.993334244593406
20
60.273002567120059
30
0
10
-28.017218481281397
20
60.177947695125781
30
0
10
-28.031748054659182
20
60.080557250060281
30
0
10
-28.035
20
60.01478368979015
30
0
10
-28.035
20
59.981800000000007
30
0
0
SPLINE
5
124
100
AcDbEntity
8
0
100
AcDbSpline
70
0
71
3
72
11
73
7
74
0
42
0.000000001
43
0.0000000001
44
0.0000000001
40
0
40
0
40
0
40
0
40
5.2106046215125557e-05
40
0.00010421432676659871
40
0.00020842860326420463
40
0.00023420322996118857
40
0.00023420322996118857
40
0.00023420322996118857
40
0.00023420322996118857
10
11.122098722932083
20
44.383947247938956
30
0
10
11.122110887318616
20
44.38412050826156
30
0
10
11.122094898187257
20
44.384468506103133
30
0
10
11.122105575937981
20
44.38516296218193
30
0
10
11.122105551725989
20
44.385770041555823
30
0
10
11.122106889773637
20
44.386203361070145
30
0
10
11.122107201787607
20
44.386289279742954
30
0
0
ARC
5
125
100
AcDbEntity
8
0
100
AcDbCircle
10
10.122098722932087
20
59.981800000000007
30
0
40
0.99999999999999645
210
0
220
-0
230
1
100
AcDbArc
50
0
51
90
0
ENDSEC
0
SECTION
2
OBJECTS
0
DICTIONARY
5
C
100
AcDbDictionary
3
ACAD_GROUP
350
D
3
ACAD_MLINESTYLE
350
17
0
DICTIONARY
5
D
100
AcDbDictionary
0
DICTIONARY
5
1A
330
C
100
AcDbDictionary
0
DICTIONARY
5
17
100
AcDbDictionary
0
ENDSEC
0
EOF
