ISO-10303-21;
HEADER;
/* Generated by software containing ST-Developer
 * from STEP Tools, Inc. (www.steptools.com) 
 */

FILE_DESCRIPTION(
/* description */ ('STEP AP214'),
/* implementation_level */ '2;1');

FILE_NAME(
/* name */ 'Same_Sky_CPG-45-TH-TR.step',
/* time_stamp */ '2025-04-24T20:54:54+02:00',
/* author */ (''),
/* organization */ (''),
/* preprocessor_version */ 'ST-DEVELOPER v20.1',
/* originating_system */ 'Autodesk Translation Framework v14.4.0.0',
/* authorisation */ '');

FILE_SCHEMA (('AUTOMOTIVE_DESIGN { 1 0 10303 214 3 1 1 }'));
ENDSEC;

DATA;
#10=MECHANICAL_DESIGN_GEOMETRIC_PRESENTATION_REPRESENTATION('',(#13),#323);
#11=SHAPE_REPRESENTATION_RELATIONSHIP('SRR','None',#333,#12);
#12=ADVANCED_BREP_SHAPE_REPRESENTATION('',(#14),#322);
#13=STYLED_ITEM('',(#343),#14);
#14=MANIFOLD_SOLID_BREP('Corpo1',#148);
#15=FACE_BOUND('',#43,.T.);
#16=FACE_BOUND('',#45,.T.);
#17=PLANE('',#181);
#18=PLANE('',#182);
#19=PLANE('',#183);
#20=TOROIDAL_SURFACE('',#178,0.0236220472440853,0.00590551181102598);
#21=(
BOUNDED_SURFACE()
B_SPLINE_SURFACE(2,2,((#266,#267,#268,#269,#270,#271,#272,#273,#274),(#275,
#276,#277,#278,#279,#280,#281,#282,#283),(#284,#285,#286,#287,#288,#289,
#290,#291,#292),(#293,#294,#295,#296,#297,#298,#299,#300,#301),(#302,#303,
#304,#305,#306,#307,#308,#309,#310)),.UNSPECIFIED.,.F.,.T.,.F.)
B_SPLINE_SURFACE_WITH_KNOTS((3,2,3),(3,2,2,2,3),(-3.05252509891275E-13,
0.786750528184175,1.57350105636866),(-3.14159265358979,-1.5707963267949,
0.,1.5707963267949,3.14159265358979),.UNSPECIFIED.)
GEOMETRIC_REPRESENTATION_ITEM()
RATIONAL_B_SPLINE_SURFACE(((1.,0.707106781186548,1.,0.707106781186548,1.,
0.707106781186548,1.,0.707106781186548,1.),(0.923620557522447,0.653098359467422,
0.923620557522447,0.653098359467422,0.923620557522447,0.653098359467422,
0.923620557522447,0.653098359467422,0.923620557522447),(1.,0.707106781186548,
1.,0.707106781186548,1.,0.707106781186548,1.,0.707106781186548,1.),(0.923620557522462,
0.653098359467433,0.923620557522462,0.653098359467433,0.923620557522462,
0.653098359467433,0.923620557522462,0.653098359467433,0.923620557522462),
(1.,0.707106781186548,1.,0.707106781186548,1.,0.707106781186548,1.,0.707106781186548,
1.)))
REPRESENTATION_ITEM('')
SURFACE()
);
#22=CYLINDRICAL_SURFACE('',#166,0.0157480314960624);
#23=CYLINDRICAL_SURFACE('',#168,0.017778407825066);
#24=CYLINDRICAL_SURFACE('',#175,0.0295275590551116);
#25=FACE_OUTER_BOUND('',#35,.T.);
#26=FACE_OUTER_BOUND('',#36,.T.);
#27=FACE_OUTER_BOUND('',#37,.T.);
#28=FACE_OUTER_BOUND('',#38,.T.);
#29=FACE_OUTER_BOUND('',#39,.T.);
#30=FACE_OUTER_BOUND('',#40,.T.);
#31=FACE_OUTER_BOUND('',#41,.T.);
#32=FACE_OUTER_BOUND('',#42,.T.);
#33=FACE_OUTER_BOUND('',#44,.T.);
#34=FACE_OUTER_BOUND('',#46,.T.);
#35=EDGE_LOOP('',(#100,#101,#102,#103,#104));
#36=EDGE_LOOP('',(#105,#106,#107,#108,#109));
#37=EDGE_LOOP('',(#110,#111,#112,#113));
#38=EDGE_LOOP('',(#114,#115,#116,#117,#118));
#39=EDGE_LOOP('',(#119,#120,#121,#122,#123));
#40=EDGE_LOOP('',(#124,#125,#126));
#41=EDGE_LOOP('',(#127,#128,#129,#130));
#42=EDGE_LOOP('',(#131));
#43=EDGE_LOOP('',(#132));
#44=EDGE_LOOP('',(#133));
#45=EDGE_LOOP('',(#134));
#46=EDGE_LOOP('',(#135));
#47=LINE('',#242,#52);
#48=LINE('',#247,#53);
#49=LINE('',#252,#54);
#50=LINE('',#260,#55);
#51=LINE('',#265,#56);
#52=VECTOR('',#192,0.0157480314914051);
#53=VECTOR('',#199,0.0157480314960624);
#54=VECTOR('',#204,0.017778407825066);
#55=VECTOR('',#213,0.0295275590514771);
#56=VECTOR('',#220,0.0295275590551116);
#57=CIRCLE('',#163,0.0157480314960624);
#58=CIRCLE('',#164,0.0157480314960624);
#59=CIRCLE('',#165,0.0118110236228524);
#60=CIRCLE('',#167,0.0157480314960624);
#61=CIRCLE('',#169,0.017778407825066);
#62=CIRCLE('',#170,0.017778407825066);
#63=CIRCLE('',#172,0.0295275590551121);
#64=CIRCLE('',#173,0.0295275590551121);
#65=CIRCLE('',#174,0.0275590551201452);
#66=CIRCLE('',#176,0.0295275590551116);
#67=CIRCLE('',#177,0.0177304518061839);
#68=CIRCLE('',#179,0.0236220472440886);
#69=CIRCLE('',#180,0.00590551181102598);
#70=VERTEX_POINT('',#237);
#71=VERTEX_POINT('',#238);
#72=VERTEX_POINT('',#241);
#73=VERTEX_POINT('',#245);
#74=VERTEX_POINT('',#249);
#75=VERTEX_POINT('',#251);
#76=VERTEX_POINT('',#255);
#77=VERTEX_POINT('',#256);
#78=VERTEX_POINT('',#259);
#79=VERTEX_POINT('',#263);
#80=VERTEX_POINT('',#311);
#81=VERTEX_POINT('',#314);
#82=EDGE_CURVE('',#70,#71,#57,.T.);
#83=EDGE_CURVE('',#71,#70,#58,.T.);
#84=EDGE_CURVE('',#71,#72,#47,.T.);
#85=EDGE_CURVE('',#72,#72,#59,.T.);
#86=EDGE_CURVE('',#73,#73,#60,.T.);
#87=EDGE_CURVE('',#73,#70,#48,.T.);
#88=EDGE_CURVE('',#74,#74,#61,.T.);
#89=EDGE_CURVE('',#74,#75,#49,.T.);
#90=EDGE_CURVE('',#75,#75,#62,.T.);
#91=EDGE_CURVE('',#76,#77,#63,.T.);
#92=EDGE_CURVE('',#77,#76,#64,.T.);
#93=EDGE_CURVE('',#77,#78,#50,.T.);
#94=EDGE_CURVE('',#78,#78,#65,.T.);
#95=EDGE_CURVE('',#79,#79,#66,.T.);
#96=EDGE_CURVE('',#79,#76,#51,.T.);
#97=EDGE_CURVE('',#80,#74,#67,.T.);
#98=EDGE_CURVE('',#81,#81,#68,.T.);
#99=EDGE_CURVE('',#81,#79,#69,.T.);
#100=ORIENTED_EDGE('',*,*,#82,.F.);
#101=ORIENTED_EDGE('',*,*,#83,.F.);
#102=ORIENTED_EDGE('',*,*,#84,.T.);
#103=ORIENTED_EDGE('',*,*,#85,.T.);
#104=ORIENTED_EDGE('',*,*,#84,.F.);
#105=ORIENTED_EDGE('',*,*,#86,.F.);
#106=ORIENTED_EDGE('',*,*,#87,.T.);
#107=ORIENTED_EDGE('',*,*,#82,.T.);
#108=ORIENTED_EDGE('',*,*,#83,.T.);
#109=ORIENTED_EDGE('',*,*,#87,.F.);
#110=ORIENTED_EDGE('',*,*,#88,.T.);
#111=ORIENTED_EDGE('',*,*,#89,.T.);
#112=ORIENTED_EDGE('',*,*,#90,.F.);
#113=ORIENTED_EDGE('',*,*,#89,.F.);
#114=ORIENTED_EDGE('',*,*,#91,.F.);
#115=ORIENTED_EDGE('',*,*,#92,.F.);
#116=ORIENTED_EDGE('',*,*,#93,.T.);
#117=ORIENTED_EDGE('',*,*,#94,.T.);
#118=ORIENTED_EDGE('',*,*,#93,.F.);
#119=ORIENTED_EDGE('',*,*,#95,.T.);
#120=ORIENTED_EDGE('',*,*,#96,.T.);
#121=ORIENTED_EDGE('',*,*,#91,.T.);
#122=ORIENTED_EDGE('',*,*,#92,.T.);
#123=ORIENTED_EDGE('',*,*,#96,.F.);
#124=ORIENTED_EDGE('',*,*,#97,.T.);
#125=ORIENTED_EDGE('',*,*,#88,.F.);
#126=ORIENTED_EDGE('',*,*,#97,.F.);
#127=ORIENTED_EDGE('',*,*,#98,.T.);
#128=ORIENTED_EDGE('',*,*,#99,.T.);
#129=ORIENTED_EDGE('',*,*,#95,.F.);
#130=ORIENTED_EDGE('',*,*,#99,.F.);
#131=ORIENTED_EDGE('',*,*,#98,.F.);
#132=ORIENTED_EDGE('',*,*,#90,.T.);
#133=ORIENTED_EDGE('',*,*,#94,.F.);
#134=ORIENTED_EDGE('',*,*,#86,.T.);
#135=ORIENTED_EDGE('',*,*,#85,.F.);
#136=CONICAL_SURFACE('',#162,0.0157480314914051,0.785398163397448);
#137=CONICAL_SURFACE('',#171,0.0295275590514771,0.785398163397448);
#138=ADVANCED_FACE('',(#25),#136,.T.);
#139=ADVANCED_FACE('',(#26),#22,.T.);
#140=ADVANCED_FACE('',(#27),#23,.T.);
#141=ADVANCED_FACE('',(#28),#137,.T.);
#142=ADVANCED_FACE('',(#29),#24,.T.);
#143=ADVANCED_FACE('',(#30),#21,.F.);
#144=ADVANCED_FACE('',(#31),#20,.T.);
#145=ADVANCED_FACE('',(#32,#15),#17,.T.);
#146=ADVANCED_FACE('',(#33,#16),#18,.T.);
#147=ADVANCED_FACE('',(#34),#19,.T.);
#148=CLOSED_SHELL('',(#138,#139,#140,#141,#142,#143,#144,#145,#146,#147));
#149=DERIVED_UNIT_ELEMENT(#151,1.);
#150=DERIVED_UNIT_ELEMENT(#327,-3.);
#151=(
MASS_UNIT()
NAMED_UNIT(*)
SI_UNIT(.KILO.,.GRAM.)
);
#152=DERIVED_UNIT((#149,#150));
#153=MEASURE_REPRESENTATION_ITEM('density measure',
POSITIVE_RATIO_MEASURE(7850.),#152);
#154=PROPERTY_DEFINITION_REPRESENTATION(#159,#156);
#155=PROPERTY_DEFINITION_REPRESENTATION(#160,#157);
#156=REPRESENTATION('material name',(#158),#322);
#157=REPRESENTATION('density',(#153),#322);
#158=DESCRIPTIVE_REPRESENTATION_ITEM('Acciaio','Acciaio');
#159=PROPERTY_DEFINITION('material property','material name',#335);
#160=PROPERTY_DEFINITION('material property','density of part',#335);
#161=AXIS2_PLACEMENT_3D('',#235,#184,#185);
#162=AXIS2_PLACEMENT_3D('',#236,#186,#187);
#163=AXIS2_PLACEMENT_3D('',#239,#188,#189);
#164=AXIS2_PLACEMENT_3D('',#240,#190,#191);
#165=AXIS2_PLACEMENT_3D('',#243,#193,#194);
#166=AXIS2_PLACEMENT_3D('',#244,#195,#196);
#167=AXIS2_PLACEMENT_3D('',#246,#197,#198);
#168=AXIS2_PLACEMENT_3D('',#248,#200,#201);
#169=AXIS2_PLACEMENT_3D('',#250,#202,#203);
#170=AXIS2_PLACEMENT_3D('',#253,#205,#206);
#171=AXIS2_PLACEMENT_3D('',#254,#207,#208);
#172=AXIS2_PLACEMENT_3D('',#257,#209,#210);
#173=AXIS2_PLACEMENT_3D('',#258,#211,#212);
#174=AXIS2_PLACEMENT_3D('',#261,#214,#215);
#175=AXIS2_PLACEMENT_3D('',#262,#216,#217);
#176=AXIS2_PLACEMENT_3D('',#264,#218,#219);
#177=AXIS2_PLACEMENT_3D('',#312,#221,#222);
#178=AXIS2_PLACEMENT_3D('',#313,#223,#224);
#179=AXIS2_PLACEMENT_3D('',#315,#225,#226);
#180=AXIS2_PLACEMENT_3D('',#316,#227,#228);
#181=AXIS2_PLACEMENT_3D('',#317,#229,#230);
#182=AXIS2_PLACEMENT_3D('',#318,#231,#232);
#183=AXIS2_PLACEMENT_3D('',#319,#233,#234);
#184=DIRECTION('axis',(0.,0.,1.));
#185=DIRECTION('refdir',(1.,0.,0.));
#186=DIRECTION('center_axis',(-2.22044604925031E-16,7.33936165434623E-15,
1.));
#187=DIRECTION('ref_axis',(1.,-4.99645092518118E-15,2.22044604925068E-16));
#188=DIRECTION('center_axis',(-2.22044604925062E-16,1.17145536458252E-15,
1.));
#189=DIRECTION('ref_axis',(4.99645092518118E-15,1.,-1.17145536458252E-15));
#190=DIRECTION('center_axis',(-2.22044604925062E-16,1.17145536458252E-15,
1.));
#191=DIRECTION('ref_axis',(4.99645092518118E-15,1.,-1.17145536458252E-15));
#192=DIRECTION('',(0.707106781186548,-8.6361411208066E-15,-0.707106781186547));
#193=DIRECTION('center_axis',(-2.22044604925031E-16,7.33936165434623E-15,
1.));
#194=DIRECTION('ref_axis',(1.,-4.99645092518118E-15,2.22044604925068E-16));
#195=DIRECTION('center_axis',(-2.22044604925062E-16,1.17145536458252E-15,
1.));
#196=DIRECTION('ref_axis',(4.99645092518118E-15,1.,-1.17145536458252E-15));
#197=DIRECTION('center_axis',(-2.22044604925062E-16,1.17145536458252E-15,
1.));
#198=DIRECTION('ref_axis',(4.99645092518118E-15,1.,-1.17145536458252E-15));
#199=DIRECTION('',(2.22044604925062E-16,-1.17145536458252E-15,-1.));
#200=DIRECTION('center_axis',(-2.22044604925062E-16,1.17145536458252E-15,
1.));
#201=DIRECTION('ref_axis',(4.99645092518118E-15,1.,-1.17145536458252E-15));
#202=DIRECTION('center_axis',(2.22044604925062E-16,-1.17145536458252E-15,
-1.));
#203=DIRECTION('ref_axis',(4.99645092518118E-15,1.,-1.17145536458252E-15));
#204=DIRECTION('',(2.22044604925062E-16,-1.17145536458252E-15,-1.));
#205=DIRECTION('center_axis',(2.22044604925062E-16,-1.17145536458252E-15,
-1.));
#206=DIRECTION('ref_axis',(4.99645092518118E-15,1.,-1.17145536458252E-15));
#207=DIRECTION('center_axis',(-2.22044604925031E-16,7.33936165434623E-15,
1.));
#208=DIRECTION('ref_axis',(1.,-4.99645092518118E-15,2.22044604925068E-16));
#209=DIRECTION('center_axis',(-2.22044604925062E-16,1.17145536458252E-15,
1.));
#210=DIRECTION('ref_axis',(4.99645092518118E-15,1.,-1.17145536458252E-15));
#211=DIRECTION('center_axis',(-2.22044604925062E-16,1.17145536458252E-15,
1.));
#212=DIRECTION('ref_axis',(4.99645092518118E-15,1.,-1.17145536458252E-15));
#213=DIRECTION('',(0.707106781186548,-8.6361411208066E-15,-0.707106781186547));
#214=DIRECTION('center_axis',(-2.22044604925031E-16,7.33936165434623E-15,
1.));
#215=DIRECTION('ref_axis',(1.,-4.99645092518118E-15,2.22044604925068E-16));
#216=DIRECTION('center_axis',(-2.22044604925062E-16,1.17145536458252E-15,
1.));
#217=DIRECTION('ref_axis',(4.99645092518118E-15,1.,-1.17145536458252E-15));
#218=DIRECTION('center_axis',(2.22044604925062E-16,-1.17145536458252E-15,
-1.));
#219=DIRECTION('ref_axis',(4.99645092518118E-15,1.,-1.17145536458252E-15));
#220=DIRECTION('',(2.22044604925062E-16,-1.17145536458252E-15,-1.));
#221=DIRECTION('center_axis',(1.,-4.87398624523557E-15,-1.74313617725965E-13));
#222=DIRECTION('ref_axis',(-4.87398624526557E-15,-1.,-1.72100324337792E-13));
#223=DIRECTION('center_axis',(2.29076017414378E-14,-6.20495773847434E-14,
1.));
#224=DIRECTION('ref_axis',(4.99645092518106E-15,1.,6.2039262616068E-14));
#225=DIRECTION('center_axis',(2.22044604925031E-16,-7.33936165434623E-15,
-1.));
#226=DIRECTION('ref_axis',(5.06074488213642E-15,1.,-7.33936165434623E-15));
#227=DIRECTION('center_axis',(1.,-4.8739862452649E-15,-2.29076017414381E-14));
#228=DIRECTION('ref_axis',(-4.87398624526632E-15,-1.,-6.21724893790231E-14));
#229=DIRECTION('center_axis',(-2.22044604925062E-16,1.17145536458252E-15,
1.));
#230=DIRECTION('ref_axis',(4.99645092518118E-15,1.,-1.17145536458252E-15));
#231=DIRECTION('center_axis',(2.22044604925062E-16,-1.17145536458252E-15,
-1.));
#232=DIRECTION('ref_axis',(-4.99645092518118E-15,-1.,1.17145536458252E-15));
#233=DIRECTION('center_axis',(2.22044604925062E-16,-1.17145536458252E-15,
-1.));
#234=DIRECTION('ref_axis',(-4.99645092518118E-15,-1.,1.17145536458252E-15));
#235=CARTESIAN_POINT('',(0.,0.,0.));
#236=CARTESIAN_POINT('Origin',(0.,-6.99353086378051E-16,-0.0157480315004497));
#237=CARTESIAN_POINT('',(-3.82912729612319E-17,-0.0157480314960626,-0.015748031496064));
#238=CARTESIAN_POINT('',(-0.0157480314959269,-6.22597397443693E-16,-0.0157480314959279));
#239=CARTESIAN_POINT('Origin',(0.,0.,-0.0157480314960641));
#240=CARTESIAN_POINT('Origin',(0.,0.,-0.0157480314960641));
#241=CARTESIAN_POINT('',(-0.0118110236228522,-6.70681444281069E-16,-0.0196850393690026));
#242=CARTESIAN_POINT('',(-0.0157480314914051,-6.2259739749892E-16,-0.0157480315004497));
#243=CARTESIAN_POINT('Origin',(0.,-6.99353086378051E-16,-0.0196850393690027));
#244=CARTESIAN_POINT('Origin',(0.,0.,0.157480297801016));
#245=CARTESIAN_POINT('',(-4.17880383931229E-17,-0.0157480314960625,2.18547839493141E-17));
#246=CARTESIAN_POINT('Origin',(0.,0.,0.));
#247=CARTESIAN_POINT('',(-7.67556889018306E-17,-0.0157480314960624,0.157480297801016));
#248=CARTESIAN_POINT('Origin',(0.,0.,0.157480297801016));
#249=CARTESIAN_POINT('',(-8.2714778436159E-17,-0.0177784078250661,0.139749910848904));
#250=CARTESIAN_POINT('Origin',(0.,0.,0.139749910848904));
#251=CARTESIAN_POINT('',(-7.44130400006913E-17,-0.0177784078250661,0.102362204724409));
#252=CARTESIAN_POINT('',(-8.66517152021092E-17,-0.017778407825066,0.157480297801016));
#253=CARTESIAN_POINT('Origin',(0.,0.,0.102362204724409));
#254=CARTESIAN_POINT('Origin',(0.,-6.99353086378051E-16,0.00196850393264981));
#255=CARTESIAN_POINT('',(-1.09386361861185E-16,-0.0295275590551118,0.00196850393700823));
#256=CARTESIAN_POINT('',(-0.0295275590554743,-5.55436169656041E-16,0.00196850393664693));
#257=CARTESIAN_POINT('Origin',(0.,0.,0.00196850393700818));
#258=CARTESIAN_POINT('Origin',(0.,0.,0.00196850393700818));
#259=CARTESIAN_POINT('',(-0.027559055120145,-5.79478193059973E-16,1.31769868419998E-12));
#260=CARTESIAN_POINT('',(-0.0295275590514771,-5.55436169704859E-16,0.00196850393264981));
#261=CARTESIAN_POINT('Origin',(0.,-6.99353086378051E-16,1.31758121473625E-12));
#262=CARTESIAN_POINT('Origin',(0.,0.,0.157480297801016));
#263=CARTESIAN_POINT('',(-1.30366954452529E-16,-0.0295275590551116,0.0964566929133849));
#264=CARTESIAN_POINT('Origin',(0.,0.,0.0964566929133848));
#265=CARTESIAN_POINT('',(-1.43916916690906E-16,-0.0295275590551116,0.157480297801016));
#266=CARTESIAN_POINT('Ctrl Pts',(-2.88624128773895E-15,-0.0177784078250658,
0.139749910848896));
#267=CARTESIAN_POINT('Ctrl Pts',(0.0177784078250664,-0.0177784078250659,
0.139749910848893));
#268=CARTESIAN_POINT('Ctrl Pts',(0.0177784078250665,3.40793648966592E-15,
0.139749910848896));
#269=CARTESIAN_POINT('Ctrl Pts',(0.0177784078250666,0.0177784078250727,
0.139749910848899));
#270=CARTESIAN_POINT('Ctrl Pts',(-2.70858340328735E-15,0.0177784078250728,
0.139749910848902));
#271=CARTESIAN_POINT('Ctrl Pts',(-0.017778407825072,0.0177784078250729,
0.139749910848905));
#272=CARTESIAN_POINT('Ctrl Pts',(-0.0177784078250721,3.58559437411646E-15,
0.139749910848902));
#273=CARTESIAN_POINT('Ctrl Pts',(-0.0177784078250722,-0.0177784078250657,
0.139749910848899));
#274=CARTESIAN_POINT('Ctrl Pts',(-2.88624128773895E-15,-0.0177784078250658,
0.139749910848896));
#275=CARTESIAN_POINT('Ctrl Pts',(-1.60359923403061E-15,-0.0177784078250693,
0.147108154401186));
#276=CARTESIAN_POINT('Ctrl Pts',(0.01777840782507,-0.0177784078250694,0.147108154401182));
#277=CARTESIAN_POINT('Ctrl Pts',(0.01777840782507,2.14083014230079E-15,
0.147108154401185));
#278=CARTESIAN_POINT('Ctrl Pts',(0.0177784078250701,0.0177784078250737,
0.147108154401189));
#279=CARTESIAN_POINT('Ctrl Pts',(-1.42594134957898E-15,0.0177784078250738,
0.147108154401192));
#280=CARTESIAN_POINT('Ctrl Pts',(-0.017778407825073,0.0177784078250739,
0.147108154401195));
#281=CARTESIAN_POINT('Ctrl Pts',(-0.0177784078250731,2.31848802675135E-15,
0.147108154401192));
#282=CARTESIAN_POINT('Ctrl Pts',(-0.0177784078250732,-0.0177784078250692,
0.147108154401189));
#283=CARTESIAN_POINT('Ctrl Pts',(-1.60359923403061E-15,-0.0177784078250693,
0.147108154401186));
#284=CARTESIAN_POINT('Ctrl Pts',(-6.71829729449658E-16,-0.0125683122312656,
0.152304177118441));
#285=CARTESIAN_POINT('Ctrl Pts',(0.0125683122312663,-0.0125683122312657,
0.152304177118439));
#286=CARTESIAN_POINT('Ctrl Pts',(0.0125683122312663,1.27209514861177E-15,
0.152304177118441));
#287=CARTESIAN_POINT('Ctrl Pts',(0.0125683122312664,0.0125683122312682,
0.152304177118444));
#288=CARTESIAN_POINT('Ctrl Pts',(-5.46235818897915E-16,0.0125683122312683,
0.152304177118446));
#289=CARTESIAN_POINT('Ctrl Pts',(-0.0125683122312675,0.0125683122312683,
0.152304177118448));
#290=CARTESIAN_POINT('Ctrl Pts',(-0.0125683122312676,1.39768905916275E-15,
0.152304177118446));
#291=CARTESIAN_POINT('Ctrl Pts',(-0.0125683122312676,-0.0125683122312655,
0.152304177118444));
#292=CARTESIAN_POINT('Ctrl Pts',(-6.71829729449658E-16,-0.0125683122312656,
0.152304177118441));
#293=CARTESIAN_POINT('Ctrl Pts',(2.59939775131292E-16,-0.00735821663746189,
0.157500199835697));
#294=CARTESIAN_POINT('Ctrl Pts',(0.00735821663746259,-0.00735821663746193,
0.157500199835696));
#295=CARTESIAN_POINT('Ctrl Pts',(0.00735821663746263,4.03360154922746E-16,
0.157500199835697));
#296=CARTESIAN_POINT('Ctrl Pts',(0.00735821663746267,0.00735821663746273,
0.157500199835698));
#297=CARTESIAN_POINT('Ctrl Pts',(3.3346971178315E-16,0.00735821663746277,
0.1575001998357));
#298=CARTESIAN_POINT('Ctrl Pts',(-0.007358216637462,0.00735821663746281,
0.157500199835701));
#299=CARTESIAN_POINT('Ctrl Pts',(-0.00735821663746204,4.76890091574162E-16,
0.1575001998357));
#300=CARTESIAN_POINT('Ctrl Pts',(-0.00735821663746207,-0.00735821663746185,
0.157500199835699));
#301=CARTESIAN_POINT('Ctrl Pts',(2.59939775131292E-16,-0.00735821663746189,
0.157500199835697));
#302=CARTESIAN_POINT('Ctrl Pts',(2.93235547791865E-16,4.42741776660614E-16,
0.157480297801017));
#303=CARTESIAN_POINT('Ctrl Pts',(2.94046070211897E-16,4.42741776660613E-16,
0.157480297801017));
#304=CARTESIAN_POINT('Ctrl Pts',(2.94046070211899E-16,4.43552299080645E-16,
0.157480297801017));
#305=CARTESIAN_POINT('Ctrl Pts',(2.940460702119E-16,4.44362821500677E-16,
0.157480297801017));
#306=CARTESIAN_POINT('Ctrl Pts',(2.93235547791868E-16,4.44362821500678E-16,
0.157480297801017));
#307=CARTESIAN_POINT('Ctrl Pts',(2.92425025371836E-16,4.44362821500679E-16,
0.157480297801017));
#308=CARTESIAN_POINT('Ctrl Pts',(2.92425025371835E-16,4.43552299080647E-16,
0.157480297801017));
#309=CARTESIAN_POINT('Ctrl Pts',(2.92425025371833E-16,4.42741776660615E-16,
0.157480297801017));
#310=CARTESIAN_POINT('Ctrl Pts',(2.93235547791865E-16,4.42741776660614E-16,
0.157480297801017));
#311=CARTESIAN_POINT('',(0.,2.01413688876879E-13,0.157480297801017));
#312=CARTESIAN_POINT('Origin',(-2.79764608248863E-15,-4.79560188818853E-5,
0.139749910848904));
#313=CARTESIAN_POINT('Origin',(0.,6.99353086378051E-16,0.0964566929133862));
#314=CARTESIAN_POINT('',(2.01475792935916E-17,-0.0236220472440886,0.10236220472441));
#315=CARTESIAN_POINT('Origin',(0.,0.,0.102362204724409));
#316=CARTESIAN_POINT('Origin',(-1.15133533352703E-16,-0.0236220472440846,
0.0964566929133847));
#317=CARTESIAN_POINT('Origin',(0.,0.0236220472440891,0.102362204724409));
#318=CARTESIAN_POINT('Origin',(0.,0.0275590551181034,-6.99353086378051E-16));
#319=CARTESIAN_POINT('Origin',(0.,0.0118110236220477,-0.0196850393700797));
#320=UNCERTAINTY_MEASURE_WITH_UNIT(LENGTH_MEASURE(0.000393700787401575),
#325,'DISTANCE_ACCURACY_VALUE',
'Maximum model space distance between geometric entities at asserted c
onnectivities');
#321=UNCERTAINTY_MEASURE_WITH_UNIT(LENGTH_MEASURE(0.000393700787401575),
#325,'DISTANCE_ACCURACY_VALUE',
'Maximum model space distance between geometric entities at asserted c
onnectivities');
#322=(
GEOMETRIC_REPRESENTATION_CONTEXT(3)
GLOBAL_UNCERTAINTY_ASSIGNED_CONTEXT((#320))
GLOBAL_UNIT_ASSIGNED_CONTEXT((#325,#329,#330))
REPRESENTATION_CONTEXT('','3D')
);
#323=(
GEOMETRIC_REPRESENTATION_CONTEXT(3)
GLOBAL_UNCERTAINTY_ASSIGNED_CONTEXT((#321))
GLOBAL_UNIT_ASSIGNED_CONTEXT((#325,#329,#330))
REPRESENTATION_CONTEXT('','3D')
);
#324=DIMENSIONAL_EXPONENTS(1.,0.,0.,0.,0.,0.,0.);
#325=(
CONVERSION_BASED_UNIT('inch',#328)
LENGTH_UNIT()
NAMED_UNIT(#324)
);
#326=(
LENGTH_UNIT()
NAMED_UNIT(*)
SI_UNIT(.MILLI.,.METRE.)
);
#327=(
LENGTH_UNIT()
NAMED_UNIT(*)
SI_UNIT($,.METRE.)
);
#328=LENGTH_MEASURE_WITH_UNIT(LENGTH_MEASURE(25.4),#326);
#329=(
NAMED_UNIT(*)
PLANE_ANGLE_UNIT()
SI_UNIT($,.RADIAN.)
);
#330=(
NAMED_UNIT(*)
SI_UNIT($,.STERADIAN.)
SOLID_ANGLE_UNIT()
);
#331=SHAPE_DEFINITION_REPRESENTATION(#332,#333);
#332=PRODUCT_DEFINITION_SHAPE('',$,#335);
#333=SHAPE_REPRESENTATION('',(#161),#322);
#334=PRODUCT_DEFINITION_CONTEXT('part definition',#339,'design');
#335=PRODUCT_DEFINITION('Same_Sky_CPG-45-TH-TR',
'Same_Sky_CPG-45-TH-TR v1',#336,#334);
#336=PRODUCT_DEFINITION_FORMATION('',$,#341);
#337=PRODUCT_RELATED_PRODUCT_CATEGORY('Same_Sky_CPG-45-TH-TR v1',
'Same_Sky_CPG-45-TH-TR v1',(#341));
#338=APPLICATION_PROTOCOL_DEFINITION('international standard',
'automotive_design',2009,#339);
#339=APPLICATION_CONTEXT(
'Core Data for Automotive Mechanical Design Process');
#340=PRODUCT_CONTEXT('part definition',#339,'mechanical');
#341=PRODUCT('Same_Sky_CPG-45-TH-TR','Same_Sky_CPG-45-TH-TR v1',
'STEP AP214',(#340));
#342=PRESENTATION_STYLE_ASSIGNMENT((#344));
#343=PRESENTATION_STYLE_ASSIGNMENT((#345));
#344=SURFACE_STYLE_USAGE(.BOTH.,#346);
#345=SURFACE_STYLE_USAGE(.BOTH.,#347);
#346=SURFACE_SIDE_STYLE('',(#348));
#347=SURFACE_SIDE_STYLE('',(#349));
#348=SURFACE_STYLE_FILL_AREA(#350);
#349=SURFACE_STYLE_FILL_AREA(#351);
#350=FILL_AREA_STYLE('Acciaio - Satinato',(#352));
#351=FILL_AREA_STYLE('Oro - Lucidato',(#353));
#352=FILL_AREA_STYLE_COLOUR('Acciaio - Satinato',#354);
#353=FILL_AREA_STYLE_COLOUR('Oro - Lucidato',#355);
#354=COLOUR_RGB('Acciaio - Satinato',0.627450980392157,0.627450980392157,
0.627450980392157);
#355=COLOUR_RGB('Oro - Lucidato',0.956862745098039,0.898039215686275,0.654901960784314);
ENDSEC;
END-ISO-10303-21;
