ISO-10303-21;
HEADER;
/* Generated by software containing ST-Developer
 * from STEP Tools, Inc. (www.steptools.com) 
 */

FILE_DESCRIPTION(
/* description */ ('STEP AP203'),
/* implementation_level */ '2;1');

FILE_NAME(
/* name */ 'Same_Sky_CPG-44-TH-TR.step',
/* time_stamp */ '2025-04-24T21:17:15+02:00',
/* author */ (''),
/* organization */ (''),
/* preprocessor_version */ 'ST-DEVELOPER v20.1',
/* originating_system */ 'Autodesk Translation Framework v14.4.0.0',
/* authorisation */ '');

FILE_SCHEMA (('AUTOMOTIVE_DESIGN { 1 0 10303 214 3 1 1 }'));
ENDSEC;

DATA;
#10=MECHANICAL_DESIGN_GEOMETRIC_PRESENTATION_REPRESENTATION('',(#13),#337);
#11=SHAPE_REPRESENTATION_RELATIONSHIP('SRR','None',#347,#12);
#12=ADVANCED_BREP_SHAPE_REPRESENTATION('',(#14),#336);
#13=STYLED_ITEM('',(#357),#14);
#14=MANIFOLD_SOLID_BREP('Corpo1',#178);
#15=FACE_BOUND('',#47,.T.);
#16=FACE_BOUND('',#50,.T.);
#17=FACE_BOUND('',#52,.T.);
#18=PLANE('',#216);
#19=PLANE('',#217);
#20=PLANE('',#218);
#21=PLANE('',#219);
#22=SPHERICAL_SURFACE('',#214,0.0177165354330706);
#23=TOROIDAL_SURFACE('',#211,0.0236220472440946,0.00590551181102393);
#24=CONICAL_SURFACE('',#203,0.0393700787409659,0.785398163397448);
#25=CONICAL_SURFACE('',#205,0.0295275590539213,0.785398163397448);
#26=FACE_OUTER_BOUND('',#38,.T.);
#27=FACE_OUTER_BOUND('',#39,.T.);
#28=FACE_OUTER_BOUND('',#40,.T.);
#29=FACE_OUTER_BOUND('',#41,.T.);
#30=FACE_OUTER_BOUND('',#42,.T.);
#31=FACE_OUTER_BOUND('',#43,.T.);
#32=FACE_OUTER_BOUND('',#44,.T.);
#33=FACE_OUTER_BOUND('',#45,.T.);
#34=FACE_OUTER_BOUND('',#46,.T.);
#35=FACE_OUTER_BOUND('',#48,.T.);
#36=FACE_OUTER_BOUND('',#49,.T.);
#37=FACE_OUTER_BOUND('',#51,.T.);
#38=EDGE_LOOP('',(#118,#119,#120,#121));
#39=EDGE_LOOP('',(#122,#123,#124,#125,#126));
#40=EDGE_LOOP('',(#127,#128,#129,#130,#131));
#41=EDGE_LOOP('',(#132,#133,#134,#135,#136));
#42=EDGE_LOOP('',(#137,#138,#139,#140,#141));
#43=EDGE_LOOP('',(#142,#143,#144,#145,#146));
#44=EDGE_LOOP('',(#147,#148,#149,#150,#151));
#45=EDGE_LOOP('',(#152,#153,#154));
#46=EDGE_LOOP('',(#155));
#47=EDGE_LOOP('',(#156));
#48=EDGE_LOOP('',(#157));
#49=EDGE_LOOP('',(#158));
#50=EDGE_LOOP('',(#159));
#51=EDGE_LOOP('',(#160));
#52=EDGE_LOOP('',(#161));
#53=LINE('',#289,#59);
#54=LINE('',#295,#60);
#55=LINE('',#304,#61);
#56=LINE('',#309,#62);
#57=LINE('',#316,#63);
#58=LINE('',#321,#64);
#59=VECTOR('',#226,0.0177165354330708);
#60=VECTOR('',#233,0.0295275590551179);
#61=VECTOR('',#242,0.0393700787401572);
#62=VECTOR('',#249,0.0393700787409659);
#63=VECTOR('',#256,0.0295275590539213);
#64=VECTOR('',#263,0.0295275590551179);
#65=CIRCLE('',#193,0.0177165354330708);
#66=CIRCLE('',#194,0.0177165354330708);
#67=CIRCLE('',#196,0.0295275590551179);
#68=CIRCLE('',#197,0.0295275590551179);
#69=CIRCLE('',#198,0.0295275590551179);
#70=CIRCLE('',#200,0.0393700787409659);
#71=CIRCLE('',#201,0.0393700787401572);
#72=CIRCLE('',#202,0.0393700787409659);
#73=CIRCLE('',#204,0.035433070866199);
#74=CIRCLE('',#206,0.0295275590551179);
#75=CIRCLE('',#207,0.0255905511836303);
#76=CIRCLE('',#208,0.0295275590551179);
#77=CIRCLE('',#210,0.0295275590551179);
#78=CIRCLE('',#212,0.00590551181102393);
#79=CIRCLE('',#213,0.0236220472440946);
#80=CIRCLE('',#215,0.0177165354330706);
#81=VERTEX_POINT('',#286);
#82=VERTEX_POINT('',#288);
#83=VERTEX_POINT('',#292);
#84=VERTEX_POINT('',#294);
#85=VERTEX_POINT('',#296);
#86=VERTEX_POINT('',#300);
#87=VERTEX_POINT('',#301);
#88=VERTEX_POINT('',#303);
#89=VERTEX_POINT('',#308);
#90=VERTEX_POINT('',#312);
#91=VERTEX_POINT('',#313);
#92=VERTEX_POINT('',#315);
#93=VERTEX_POINT('',#320);
#94=VERTEX_POINT('',#324);
#95=VERTEX_POINT('',#328);
#96=EDGE_CURVE('',#81,#81,#65,.T.);
#97=EDGE_CURVE('',#81,#82,#53,.T.);
#98=EDGE_CURVE('',#82,#82,#66,.T.);
#99=EDGE_CURVE('',#83,#83,#67,.T.);
#100=EDGE_CURVE('',#83,#84,#54,.T.);
#101=EDGE_CURVE('',#84,#85,#68,.T.);
#102=EDGE_CURVE('',#85,#84,#69,.T.);
#103=EDGE_CURVE('',#86,#87,#70,.T.);
#104=EDGE_CURVE('',#86,#88,#55,.T.);
#105=EDGE_CURVE('',#88,#88,#71,.T.);
#106=EDGE_CURVE('',#87,#86,#72,.T.);
#107=EDGE_CURVE('',#87,#89,#56,.T.);
#108=EDGE_CURVE('',#89,#89,#73,.T.);
#109=EDGE_CURVE('',#90,#91,#74,.T.);
#110=EDGE_CURVE('',#90,#92,#57,.T.);
#111=EDGE_CURVE('',#92,#92,#75,.T.);
#112=EDGE_CURVE('',#91,#90,#76,.T.);
#113=EDGE_CURVE('',#91,#93,#58,.T.);
#114=EDGE_CURVE('',#93,#93,#77,.T.);
#115=EDGE_CURVE('',#85,#94,#78,.T.);
#116=EDGE_CURVE('',#94,#94,#79,.T.);
#117=EDGE_CURVE('',#95,#82,#80,.T.);
#118=ORIENTED_EDGE('',*,*,#96,.T.);
#119=ORIENTED_EDGE('',*,*,#97,.T.);
#120=ORIENTED_EDGE('',*,*,#98,.T.);
#121=ORIENTED_EDGE('',*,*,#97,.F.);
#122=ORIENTED_EDGE('',*,*,#99,.T.);
#123=ORIENTED_EDGE('',*,*,#100,.T.);
#124=ORIENTED_EDGE('',*,*,#101,.T.);
#125=ORIENTED_EDGE('',*,*,#102,.T.);
#126=ORIENTED_EDGE('',*,*,#100,.F.);
#127=ORIENTED_EDGE('',*,*,#103,.F.);
#128=ORIENTED_EDGE('',*,*,#104,.T.);
#129=ORIENTED_EDGE('',*,*,#105,.T.);
#130=ORIENTED_EDGE('',*,*,#104,.F.);
#131=ORIENTED_EDGE('',*,*,#106,.F.);
#132=ORIENTED_EDGE('',*,*,#103,.T.);
#133=ORIENTED_EDGE('',*,*,#107,.T.);
#134=ORIENTED_EDGE('',*,*,#108,.T.);
#135=ORIENTED_EDGE('',*,*,#107,.F.);
#136=ORIENTED_EDGE('',*,*,#106,.T.);
#137=ORIENTED_EDGE('',*,*,#109,.F.);
#138=ORIENTED_EDGE('',*,*,#110,.T.);
#139=ORIENTED_EDGE('',*,*,#111,.T.);
#140=ORIENTED_EDGE('',*,*,#110,.F.);
#141=ORIENTED_EDGE('',*,*,#112,.F.);
#142=ORIENTED_EDGE('',*,*,#109,.T.);
#143=ORIENTED_EDGE('',*,*,#113,.T.);
#144=ORIENTED_EDGE('',*,*,#114,.T.);
#145=ORIENTED_EDGE('',*,*,#113,.F.);
#146=ORIENTED_EDGE('',*,*,#112,.T.);
#147=ORIENTED_EDGE('',*,*,#102,.F.);
#148=ORIENTED_EDGE('',*,*,#115,.T.);
#149=ORIENTED_EDGE('',*,*,#116,.T.);
#150=ORIENTED_EDGE('',*,*,#115,.F.);
#151=ORIENTED_EDGE('',*,*,#101,.F.);
#152=ORIENTED_EDGE('',*,*,#98,.F.);
#153=ORIENTED_EDGE('',*,*,#117,.F.);
#154=ORIENTED_EDGE('',*,*,#117,.T.);
#155=ORIENTED_EDGE('',*,*,#108,.F.);
#156=ORIENTED_EDGE('',*,*,#114,.F.);
#157=ORIENTED_EDGE('',*,*,#111,.F.);
#158=ORIENTED_EDGE('',*,*,#105,.F.);
#159=ORIENTED_EDGE('',*,*,#99,.F.);
#160=ORIENTED_EDGE('',*,*,#116,.F.);
#161=ORIENTED_EDGE('',*,*,#96,.F.);
#162=CYLINDRICAL_SURFACE('',#192,0.0177165354330708);
#163=CYLINDRICAL_SURFACE('',#195,0.0295275590551179);
#164=CYLINDRICAL_SURFACE('',#199,0.0393700787401572);
#165=CYLINDRICAL_SURFACE('',#209,0.0295275590551179);
#166=ADVANCED_FACE('',(#26),#162,.T.);
#167=ADVANCED_FACE('',(#27),#163,.T.);
#168=ADVANCED_FACE('',(#28),#164,.T.);
#169=ADVANCED_FACE('',(#29),#24,.T.);
#170=ADVANCED_FACE('',(#30),#25,.T.);
#171=ADVANCED_FACE('',(#31),#165,.T.);
#172=ADVANCED_FACE('',(#32),#23,.T.);
#173=ADVANCED_FACE('',(#33),#22,.T.);
#174=ADVANCED_FACE('',(#34,#15),#18,.F.);
#175=ADVANCED_FACE('',(#35),#19,.F.);
#176=ADVANCED_FACE('',(#36,#16),#20,.F.);
#177=ADVANCED_FACE('',(#37,#17),#21,.F.);
#178=CLOSED_SHELL('',(#166,#167,#168,#169,#170,#171,#172,#173,#174,#175,
#176,#177));
#179=DERIVED_UNIT_ELEMENT(#181,1.);
#180=DERIVED_UNIT_ELEMENT(#341,-3.);
#181=(
MASS_UNIT()
NAMED_UNIT(*)
SI_UNIT(.KILO.,.GRAM.)
);
#182=DERIVED_UNIT((#179,#180));
#183=MEASURE_REPRESENTATION_ITEM('density measure',
POSITIVE_RATIO_MEASURE(7850.),#182);
#184=PROPERTY_DEFINITION_REPRESENTATION(#189,#186);
#185=PROPERTY_DEFINITION_REPRESENTATION(#190,#187);
#186=REPRESENTATION('material name',(#188),#336);
#187=REPRESENTATION('density',(#183),#336);
#188=DESCRIPTIVE_REPRESENTATION_ITEM('Acciaio','Acciaio');
#189=PROPERTY_DEFINITION('material property','material name',#349);
#190=PROPERTY_DEFINITION('material property','density of part',#349);
#191=AXIS2_PLACEMENT_3D('',#284,#220,#221);
#192=AXIS2_PLACEMENT_3D('',#285,#222,#223);
#193=AXIS2_PLACEMENT_3D('',#287,#224,#225);
#194=AXIS2_PLACEMENT_3D('',#290,#227,#228);
#195=AXIS2_PLACEMENT_3D('',#291,#229,#230);
#196=AXIS2_PLACEMENT_3D('',#293,#231,#232);
#197=AXIS2_PLACEMENT_3D('',#297,#234,#235);
#198=AXIS2_PLACEMENT_3D('',#298,#236,#237);
#199=AXIS2_PLACEMENT_3D('',#299,#238,#239);
#200=AXIS2_PLACEMENT_3D('',#302,#240,#241);
#201=AXIS2_PLACEMENT_3D('',#305,#243,#244);
#202=AXIS2_PLACEMENT_3D('',#306,#245,#246);
#203=AXIS2_PLACEMENT_3D('',#307,#247,#248);
#204=AXIS2_PLACEMENT_3D('',#310,#250,#251);
#205=AXIS2_PLACEMENT_3D('',#311,#252,#253);
#206=AXIS2_PLACEMENT_3D('',#314,#254,#255);
#207=AXIS2_PLACEMENT_3D('',#317,#257,#258);
#208=AXIS2_PLACEMENT_3D('',#318,#259,#260);
#209=AXIS2_PLACEMENT_3D('',#319,#261,#262);
#210=AXIS2_PLACEMENT_3D('',#322,#264,#265);
#211=AXIS2_PLACEMENT_3D('',#323,#266,#267);
#212=AXIS2_PLACEMENT_3D('',#325,#268,#269);
#213=AXIS2_PLACEMENT_3D('',#326,#270,#271);
#214=AXIS2_PLACEMENT_3D('',#327,#272,#273);
#215=AXIS2_PLACEMENT_3D('',#329,#274,#275);
#216=AXIS2_PLACEMENT_3D('',#330,#276,#277);
#217=AXIS2_PLACEMENT_3D('',#331,#278,#279);
#218=AXIS2_PLACEMENT_3D('',#332,#280,#281);
#219=AXIS2_PLACEMENT_3D('',#333,#282,#283);
#220=DIRECTION('axis',(0.,0.,1.));
#221=DIRECTION('refdir',(1.,0.,0.));
#222=DIRECTION('center_axis',(2.22044604925031E-16,1.23908819712629E-15,
-1.));
#223=DIRECTION('ref_axis',(2.75132849198176E-31,-1.,-1.23908819712629E-15));
#224=DIRECTION('center_axis',(-2.22044604925031E-16,-1.23908819712629E-15,
1.));
#225=DIRECTION('ref_axis',(2.75132849198176E-31,-1.,-1.23908819712629E-15));
#226=DIRECTION('',(-2.22044604925031E-16,-1.23908819712629E-15,1.));
#227=DIRECTION('center_axis',(2.22044604925031E-16,1.23908819712629E-15,
-1.));
#228=DIRECTION('ref_axis',(2.75132849198176E-31,-1.,-1.23908819712629E-15));
#229=DIRECTION('center_axis',(2.22044604925031E-16,1.23908819712629E-15,
-1.));
#230=DIRECTION('ref_axis',(2.75132849198176E-31,-1.,-1.23908819712629E-15));
#231=DIRECTION('center_axis',(-2.22044604925031E-16,-1.23908819712629E-15,
1.));
#232=DIRECTION('ref_axis',(2.75132849198176E-31,-1.,-1.23908819712629E-15));
#233=DIRECTION('',(-2.22044604925031E-16,-1.23908819712629E-15,1.));
#234=DIRECTION('center_axis',(2.22044604925031E-16,1.23908819712629E-15,
-1.));
#235=DIRECTION('ref_axis',(2.75132849198176E-31,-1.,-1.23908819712629E-15));
#236=DIRECTION('center_axis',(2.22044604925031E-16,1.23908819712629E-15,
-1.));
#237=DIRECTION('ref_axis',(2.75132849198176E-31,-1.,-1.23908819712629E-15));
#238=DIRECTION('center_axis',(2.22044604925031E-16,1.23908819712629E-15,
-1.));
#239=DIRECTION('ref_axis',(2.75132849198176E-31,-1.,-1.23908819712629E-15));
#240=DIRECTION('center_axis',(2.22044604925031E-16,1.23908819712629E-15,
-1.));
#241=DIRECTION('ref_axis',(8.88178419700125E-16,1.,1.23908819712629E-15));
#242=DIRECTION('',(-2.22044604925031E-16,-1.23908819712629E-15,1.));
#243=DIRECTION('center_axis',(2.22044604925031E-16,1.23908819712629E-15,
-1.));
#244=DIRECTION('ref_axis',(2.75132849198176E-31,-1.,-1.23908819712629E-15));
#245=DIRECTION('center_axis',(2.22044604925031E-16,1.23908819712629E-15,
-1.));
#246=DIRECTION('ref_axis',(8.88178419700125E-16,1.,1.23908819712629E-15));
#247=DIRECTION('center_axis',(-2.22044604925031E-16,0.,1.));
#248=DIRECTION('ref_axis',(1.,0.,2.22044604925031E-16));
#249=DIRECTION('',(0.707106781186548,8.65956056235493E-17,-0.707106781186547));
#250=DIRECTION('center_axis',(-2.22044604925031E-16,0.,1.));
#251=DIRECTION('ref_axis',(1.,0.,2.22044604925031E-16));
#252=DIRECTION('center_axis',(-2.22044604925031E-16,0.,1.));
#253=DIRECTION('ref_axis',(1.,0.,2.22044604925031E-16));
#254=DIRECTION('center_axis',(-2.22044604925031E-16,-1.23908819712629E-15,
1.));
#255=DIRECTION('ref_axis',(2.75132849198176E-31,-1.,-1.23908819712629E-15));
#256=DIRECTION('',(0.707106781186548,8.65956056235493E-17,-0.707106781186547));
#257=DIRECTION('center_axis',(-2.22044604925031E-16,0.,1.));
#258=DIRECTION('ref_axis',(1.,0.,2.22044604925031E-16));
#259=DIRECTION('center_axis',(-2.22044604925031E-16,-1.23908819712629E-15,
1.));
#260=DIRECTION('ref_axis',(2.75132849198176E-31,-1.,-1.23908819712629E-15));
#261=DIRECTION('center_axis',(2.22044604925031E-16,1.23908819712629E-15,
-1.));
#262=DIRECTION('ref_axis',(2.75132849198176E-31,-1.,-1.23908819712629E-15));
#263=DIRECTION('',(-2.22044604925031E-16,-1.23908819712629E-15,1.));
#264=DIRECTION('center_axis',(2.22044604925031E-16,1.23908819712629E-15,
-1.));
#265=DIRECTION('ref_axis',(2.75132849198176E-31,-1.,-1.23908819712629E-15));
#266=DIRECTION('center_axis',(9.47390314346791E-15,-8.42594350669399E-29,
-1.));
#267=DIRECTION('ref_axis',(-1.,0.,-9.39988827515952E-15));
#268=DIRECTION('center_axis',(-1.22464679914734E-16,-1.,8.30992165509319E-29));
#269=DIRECTION('ref_axis',(1.,-1.22464679914734E-16,9.62193288008455E-15));
#270=DIRECTION('center_axis',(2.22044604925031E-16,0.,-1.));
#271=DIRECTION('ref_axis',(-6.42939569552358E-17,1.,-1.42761262711923E-32));
#272=DIRECTION('center_axis',(-2.22044604925031E-16,-6.12323399573686E-17,
1.));
#273=DIRECTION('ref_axis',(0.,-1.,0.));
#274=DIRECTION('center_axis',(-1.,-1.22464679914735E-16,-2.22044604925031E-16));
#275=DIRECTION('ref_axis',(-1.22464679914735E-16,1.,0.));
#276=DIRECTION('center_axis',(-2.22044604925031E-16,-1.23908819712629E-15,
1.));
#277=DIRECTION('ref_axis',(-2.75132849198176E-31,1.,1.23908819712629E-15));
#278=DIRECTION('center_axis',(-2.22044604925031E-16,-1.23908819712629E-15,
1.));
#279=DIRECTION('ref_axis',(-2.75132849198176E-31,1.,1.23908819712629E-15));
#280=DIRECTION('center_axis',(2.22044604925031E-16,1.23908819712629E-15,
-1.));
#281=DIRECTION('ref_axis',(2.75132849198176E-31,-1.,-1.23908819712629E-15));
#282=DIRECTION('center_axis',(2.22044604925031E-16,1.23908819712629E-15,
-1.));
#283=DIRECTION('ref_axis',(2.75132849198176E-31,-1.,-1.23908819712629E-15));
#284=CARTESIAN_POINT('',(0.,0.,0.));
#285=CARTESIAN_POINT('Origin',(1.57354444435067E-17,0.,-0.0708661417322858));
#286=CARTESIAN_POINT('',(-1.70625600343866E-17,0.0177165354330706,0.0866141732283432));
#287=CARTESIAN_POINT('Origin',(-1.92322098753957E-17,-3.49676543189026E-16,
0.0866141732283432));
#288=CARTESIAN_POINT('',(-2.71157606510715E-17,0.0177165354330706,0.131889763779526));
#289=CARTESIAN_POINT('',(1.79050942845158E-17,0.0177165354330708,-0.0708661417322858));
#290=CARTESIAN_POINT('Origin',(-2.92854104920806E-17,-3.49676543189026E-16,
0.131889763779526));
#291=CARTESIAN_POINT('Origin',(1.57354444435067E-17,0.,-0.0708661417322858));
#292=CARTESIAN_POINT('',(-7.54873721513653E-19,0.0295275590551177,0.0196850393700755));
#293=CARTESIAN_POINT('Origin',(-4.37095678986211E-18,0.,0.0196850393700755));
#294=CARTESIAN_POINT('',(-1.4304839770088E-17,0.0295275590551177,0.080708661417318));
#295=CARTESIAN_POINT('',(1.93515275118551E-17,0.0295275590551179,-0.0708661417322858));
#296=CARTESIAN_POINT('',(0.0295275590551178,-3.53292626257374E-16,0.080708661417318));
#297=CARTESIAN_POINT('Origin',(-1.79209228384365E-17,-3.49676543189026E-16,
0.080708661417318));
#298=CARTESIAN_POINT('Origin',(-1.79209228384365E-17,-3.49676543189026E-16,
0.080708661417318));
#299=CARTESIAN_POINT('Origin',(1.57354444435067E-17,0.,-0.0708661417322858));
#300=CARTESIAN_POINT('',(3.94725273305958E-18,0.0393700787401571,0.00393700787446224));
#301=CARTESIAN_POINT('',(-0.0393700787409659,-4.82144409123031E-18,0.00393700787446222));
#302=CARTESIAN_POINT('Origin',(-8.74191358071697E-19,0.,0.0039370078744622));
#303=CARTESIAN_POINT('',(4.50487301269175E-19,0.0393700787401571,0.0196850393700756));
#304=CARTESIAN_POINT('',(2.05568885346379E-17,0.0393700787401572,-0.0708661417322858));
#305=CARTESIAN_POINT('Origin',(-4.37095678986211E-18,0.,0.0196850393700755));
#306=CARTESIAN_POINT('Origin',(-8.74191358071697E-19,0.,0.0039370078744622));
#307=CARTESIAN_POINT('Origin',(-8.74191358071697E-19,0.,0.0039370078744622));
#308=CARTESIAN_POINT('',(-0.0354330708661989,-4.33929968202518E-18,-3.04786816957134E-13));
#309=CARTESIAN_POINT('',(-0.0393700787409659,-4.82144409123031E-18,0.00393700787446219));
#310=CARTESIAN_POINT('Origin',(6.77053847788112E-29,0.,-3.0491794566083E-13));
#311=CARTESIAN_POINT('Origin',(1.48612530859569E-17,0.,-0.0669291338601741));
#312=CARTESIAN_POINT('',(-0.0295275590554726,-3.6160830683919E-18,-0.0669291338586228));
#313=CARTESIAN_POINT('',(1.84773361538821E-17,0.0295275590551179,-0.066929133858268));
#314=CARTESIAN_POINT('Origin',(1.48612530855337E-17,0.,-0.066929133858268));
#315=CARTESIAN_POINT('',(-0.0255905511836305,-3.13393865954496E-18,-0.0708661417304649));
#316=CARTESIAN_POINT('',(-0.0295275590539213,-3.61608306820192E-18,-0.0669291338601741));
#317=CARTESIAN_POINT('Origin',(1.57354444431023E-17,0.,-0.0708661417304647));
#318=CARTESIAN_POINT('Origin',(1.48612530855337E-17,0.,-0.066929133858268));
#319=CARTESIAN_POINT('Origin',(1.57354444435067E-17,0.,-0.0708661417322858));
#320=CARTESIAN_POINT('',(3.61608306834845E-18,0.0295275590551178,4.37095678986282E-17));
#321=CARTESIAN_POINT('',(1.93515275118551E-17,0.0295275590551179,-0.0708661417322858));
#322=CARTESIAN_POINT('Origin',(0.,0.,0.));
#323=CARTESIAN_POINT('Origin',(-1.61128813042519E-17,-3.49676543189026E-16,
0.0807086614173169));
#324=CARTESIAN_POINT('',(0.0236220472440946,-3.52569409643704E-16,0.0866141732283411));
#325=CARTESIAN_POINT('Origin',(0.0236220472440946,-3.52569409643704E-16,
0.0807086614173171));
#326=CARTESIAN_POINT('Origin',(-2.07509647641016E-17,-3.49676543189026E-16,
0.0866141732283411));
#327=CARTESIAN_POINT('Origin',(-2.92854104920806E-17,-3.49676543189026E-16,
0.131889763779526));
#328=CARTESIAN_POINT('',(-3.32192716029571E-17,-3.48591718268521E-16,0.149606299212597));
#329=CARTESIAN_POINT('Origin',(-2.92854104920806E-17,-3.49676543189026E-16,
0.131889763779526));
#330=CARTESIAN_POINT('Origin',(0.,0.0354330708661413,0.));
#331=CARTESIAN_POINT('Origin',(1.57354444435065E-17,0.0255905511811018,
-0.0708661417322851));
#332=CARTESIAN_POINT('Origin',(-4.37095678986211E-18,0.0295275590551178,
0.0196850393700755));
#333=CARTESIAN_POINT('Origin',(-1.92322098753954E-17,0.0236220472440943,
0.0866141732283418));
#334=UNCERTAINTY_MEASURE_WITH_UNIT(LENGTH_MEASURE(0.000393700787401575),
#339,'DISTANCE_ACCURACY_VALUE',
'Maximum model space distance between geometric entities at asserted c
onnectivities');
#335=UNCERTAINTY_MEASURE_WITH_UNIT(LENGTH_MEASURE(0.000393700787401575),
#339,'DISTANCE_ACCURACY_VALUE',
'Maximum model space distance between geometric entities at asserted c
onnectivities');
#336=(
GEOMETRIC_REPRESENTATION_CONTEXT(3)
GLOBAL_UNCERTAINTY_ASSIGNED_CONTEXT((#334))
GLOBAL_UNIT_ASSIGNED_CONTEXT((#339,#343,#344))
REPRESENTATION_CONTEXT('','3D')
);
#337=(
GEOMETRIC_REPRESENTATION_CONTEXT(3)
GLOBAL_UNCERTAINTY_ASSIGNED_CONTEXT((#335))
GLOBAL_UNIT_ASSIGNED_CONTEXT((#339,#343,#344))
REPRESENTATION_CONTEXT('','3D')
);
#338=DIMENSIONAL_EXPONENTS(1.,0.,0.,0.,0.,0.,0.);
#339=(
CONVERSION_BASED_UNIT('inch',#342)
LENGTH_UNIT()
NAMED_UNIT(#338)
);
#340=(
LENGTH_UNIT()
NAMED_UNIT(*)
SI_UNIT(.MILLI.,.METRE.)
);
#341=(
LENGTH_UNIT()
NAMED_UNIT(*)
SI_UNIT($,.METRE.)
);
#342=LENGTH_MEASURE_WITH_UNIT(LENGTH_MEASURE(25.4),#340);
#343=(
NAMED_UNIT(*)
PLANE_ANGLE_UNIT()
SI_UNIT($,.RADIAN.)
);
#344=(
NAMED_UNIT(*)
SI_UNIT($,.STERADIAN.)
SOLID_ANGLE_UNIT()
);
#345=SHAPE_DEFINITION_REPRESENTATION(#346,#347);
#346=PRODUCT_DEFINITION_SHAPE('',$,#349);
#347=SHAPE_REPRESENTATION('',(#191),#336);
#348=PRODUCT_DEFINITION_CONTEXT('part definition',#353,'design');
#349=PRODUCT_DEFINITION('Same_Sky_CPG-44-TH-TR',
'Same_Sky_CPG-44-TH-TR v1',#350,#348);
#350=PRODUCT_DEFINITION_FORMATION('',$,#355);
#351=PRODUCT_RELATED_PRODUCT_CATEGORY('Same_Sky_CPG-44-TH-TR v1',
'Same_Sky_CPG-44-TH-TR v1',(#355));
#352=APPLICATION_PROTOCOL_DEFINITION('international standard',
'automotive_design',2009,#353);
#353=APPLICATION_CONTEXT(
'Core Data for Automotive Mechanical Design Process');
#354=PRODUCT_CONTEXT('part definition',#353,'mechanical');
#355=PRODUCT('Same_Sky_CPG-44-TH-TR','Same_Sky_CPG-44-TH-TR v1',
'STEP AP203',(#354));
#356=PRESENTATION_STYLE_ASSIGNMENT((#358));
#357=PRESENTATION_STYLE_ASSIGNMENT((#359));
#358=SURFACE_STYLE_USAGE(.BOTH.,#360);
#359=SURFACE_STYLE_USAGE(.BOTH.,#361);
#360=SURFACE_SIDE_STYLE('',(#362));
#361=SURFACE_SIDE_STYLE('',(#363));
#362=SURFACE_STYLE_FILL_AREA(#364);
#363=SURFACE_STYLE_FILL_AREA(#365);
#364=FILL_AREA_STYLE('Acciaio - Satinato',(#366));
#365=FILL_AREA_STYLE('Oro - Lucidato',(#367));
#366=FILL_AREA_STYLE_COLOUR('Acciaio - Satinato',#368);
#367=FILL_AREA_STYLE_COLOUR('Oro - Lucidato',#369);
#368=COLOUR_RGB('Acciaio - Satinato',0.627450980392157,0.627450980392157,
0.627450980392157);
#369=COLOUR_RGB('Oro - Lucidato',0.956862745098039,0.898039215686275,0.654901960784314);
ENDSEC;
END-ISO-10303-21;
