ISO-10303-21;
HEADER;
/* Generated by software containing ST-Developer
 * from STEP Tools, Inc. (www.steptools.com) 
 */

FILE_DESCRIPTION(
/* description */ ('STEP AP214'),
/* implementation_level */ '2;1');

FILE_NAME(
/* name */ 'Same_Sky_CPG-43-TH-TR.step',
/* time_stamp */ '2025-04-24T21:05:54+02:00',
/* author */ (''),
/* organization */ (''),
/* preprocessor_version */ 'ST-DEVELOPER v20.1',
/* originating_system */ 'Autodesk Translation Framework v14.4.0.0',
/* authorisation */ '');

FILE_SCHEMA (('AUTOMOTIVE_DESIGN { 1 0 10303 214 3 1 1 }'));
ENDSEC;

DATA;
#10=MECHANICAL_DESIGN_GEOMETRIC_PRESENTATION_REPRESENTATION('',(#13),#403);
#11=SHAPE_REPRESENTATION_RELATIONSHIP('SRR','None',#413,#12);
#12=ADVANCED_BREP_SHAPE_REPRESENTATION('',(#14),#402);
#13=STYLED_ITEM('',(#423),#14);
#14=MANIFOLD_SOLID_BREP('Corpo1',#178);
#15=SPHERICAL_SURFACE('',#214,0.0177165354330748);
#16=FACE_BOUND('',#50,.T.);
#17=FACE_BOUND('',#52,.T.);
#18=FACE_BOUND('',#55,.T.);
#19=PLANE('',#212);
#20=PLANE('',#213);
#21=PLANE('',#216);
#22=PLANE('',#217);
#23=B_SPLINE_CURVE_WITH_KNOTS('',3,(#314,#315,#316,#317,#318,#319,#320,
#321,#322,#323,#324,#325,#326,#327,#328,#329,#330,#331,#332,#333,#334,#335,
#336,#337,#338,#339,#340,#341,#342,#343,#344,#345,#346,#347,#348,#349,#350),
 .UNSPECIFIED.,.F.,.F.,(4,3,3,3,3,3,3,3,3,3,3,3,4),(0.,0.0853036023327411,
0.0937499999999999,0.12277826531108,0.125,0.214390404662248,0.25,0.328609173847116,
0.34375,0.371379698194675,0.375,0.476606569571617,0.500000000905484),
 .UNSPECIFIED.);
#24=B_SPLINE_CURVE_WITH_KNOTS('',3,(#356,#357,#358,#359,#360,#361,#362,
#363,#364,#365,#366,#367,#368,#369,#370,#371,#372,#373,#374,#375,#376,#377,
#378,#379,#380,#381,#382,#383,#384,#385,#386,#387,#388,#389,#390,#391,#392),
 .UNSPECIFIED.,.F.,.F.,(4,3,3,3,3,3,3,3,3,3,3,3,4),(0.500000000905484,0.5625,
0.59375,0.622988559666191,0.625,0.714390404662266,0.75,0.828609173847107,
0.84375,0.871556374569935,0.875,0.960183619355854,1.),.UNSPECIFIED.);
#25=TOROIDAL_SURFACE('',#208,0.0236220472441024,0.00590551181102362);
#26=CYLINDRICAL_SURFACE('',#195,0.029527559055126);
#27=CYLINDRICAL_SURFACE('',#200,0.0177165354330748);
#28=CYLINDRICAL_SURFACE('',#203,0.0393700787401575);
#29=CYLINDRICAL_SURFACE('',#205,0.029527559055126);
#30=FACE_OUTER_BOUND('',#42,.T.);
#31=FACE_OUTER_BOUND('',#43,.T.);
#32=FACE_OUTER_BOUND('',#44,.T.);
#33=FACE_OUTER_BOUND('',#45,.T.);
#34=FACE_OUTER_BOUND('',#46,.T.);
#35=FACE_OUTER_BOUND('',#47,.T.);
#36=FACE_OUTER_BOUND('',#48,.T.);
#37=FACE_OUTER_BOUND('',#49,.T.);
#38=FACE_OUTER_BOUND('',#51,.T.);
#39=FACE_OUTER_BOUND('',#53,.T.);
#40=FACE_OUTER_BOUND('',#54,.T.);
#41=FACE_OUTER_BOUND('',#56,.T.);
#42=EDGE_LOOP('',(#120,#121,#122,#123));
#43=EDGE_LOOP('',(#124,#125,#126,#127));
#44=EDGE_LOOP('',(#128,#129,#130,#131));
#45=EDGE_LOOP('',(#132,#133,#134,#135));
#46=EDGE_LOOP('',(#136,#137,#138,#139));
#47=EDGE_LOOP('',(#140,#141,#142,#143));
#48=EDGE_LOOP('',(#144,#145,#146,#147,#148,#149,#150));
#49=EDGE_LOOP('',(#151));
#50=EDGE_LOOP('',(#152));
#51=EDGE_LOOP('',(#153,#154,#155,#156));
#52=EDGE_LOOP('',(#157));
#53=EDGE_LOOP('',(#158,#159,#160));
#54=EDGE_LOOP('',(#161));
#55=EDGE_LOOP('',(#162));
#56=EDGE_LOOP('',(#163));
#57=LINE('',#283,#63);
#58=LINE('',#288,#64);
#59=LINE('',#293,#65);
#60=LINE('',#299,#66);
#61=LINE('',#304,#67);
#62=LINE('',#309,#68);
#63=VECTOR('',#224,0.0295275590566578);
#64=VECTOR('',#231,0.029527559055126);
#65=VECTOR('',#236,0.0393700787347507);
#66=VECTOR('',#243,0.0177165354330748);
#67=VECTOR('',#250,0.0393700787401575);
#68=VECTOR('',#255,0.029527559055126);
#69=CIRCLE('',#193,0.029527559055126);
#70=CIRCLE('',#194,0.0275590551179061);
#71=CIRCLE('',#196,0.029527559055126);
#72=CIRCLE('',#198,0.0393700787401575);
#73=CIRCLE('',#199,0.0374015748004748);
#74=CIRCLE('',#201,0.0177165354330748);
#75=CIRCLE('',#202,0.0177165354330748);
#76=CIRCLE('',#204,0.0393700787401575);
#77=CIRCLE('',#206,0.029527559055126);
#78=CIRCLE('',#207,0.029527559055126);
#79=CIRCLE('',#209,0.0236220472441024);
#80=CIRCLE('',#210,0.00590551181102362);
#81=CIRCLE('',#211,0.0236220472441024);
#82=CIRCLE('',#215,0.0177165354330748);
#83=VERTEX_POINT('',#280);
#84=VERTEX_POINT('',#282);
#85=VERTEX_POINT('',#286);
#86=VERTEX_POINT('',#290);
#87=VERTEX_POINT('',#292);
#88=VERTEX_POINT('',#296);
#89=VERTEX_POINT('',#298);
#90=VERTEX_POINT('',#302);
#91=VERTEX_POINT('',#306);
#92=VERTEX_POINT('',#308);
#93=VERTEX_POINT('',#312);
#94=VERTEX_POINT('',#313);
#95=VERTEX_POINT('',#351);
#96=VERTEX_POINT('',#354);
#97=VERTEX_POINT('',#396);
#98=EDGE_CURVE('',#83,#83,#69,.T.);
#99=EDGE_CURVE('',#83,#84,#57,.T.);
#100=EDGE_CURVE('',#84,#84,#70,.T.);
#101=EDGE_CURVE('',#85,#85,#71,.T.);
#102=EDGE_CURVE('',#85,#83,#58,.T.);
#103=EDGE_CURVE('',#86,#86,#72,.T.);
#104=EDGE_CURVE('',#86,#87,#59,.T.);
#105=EDGE_CURVE('',#87,#87,#73,.T.);
#106=EDGE_CURVE('',#88,#88,#74,.T.);
#107=EDGE_CURVE('',#88,#89,#60,.T.);
#108=EDGE_CURVE('',#89,#89,#75,.T.);
#109=EDGE_CURVE('',#90,#90,#76,.T.);
#110=EDGE_CURVE('',#90,#86,#61,.T.);
#111=EDGE_CURVE('',#91,#91,#77,.T.);
#112=EDGE_CURVE('',#91,#92,#62,.T.);
#113=EDGE_CURVE('',#92,#92,#78,.T.);
#114=EDGE_CURVE('',#93,#94,#23,.T.);
#115=EDGE_CURVE('',#93,#95,#79,.T.);
#116=EDGE_CURVE('',#95,#91,#80,.T.);
#117=EDGE_CURVE('',#95,#96,#81,.T.);
#118=EDGE_CURVE('',#94,#96,#24,.T.);
#119=EDGE_CURVE('',#88,#97,#82,.T.);
#120=ORIENTED_EDGE('',*,*,#98,.F.);
#121=ORIENTED_EDGE('',*,*,#99,.T.);
#122=ORIENTED_EDGE('',*,*,#100,.T.);
#123=ORIENTED_EDGE('',*,*,#99,.F.);
#124=ORIENTED_EDGE('',*,*,#101,.T.);
#125=ORIENTED_EDGE('',*,*,#102,.T.);
#126=ORIENTED_EDGE('',*,*,#98,.T.);
#127=ORIENTED_EDGE('',*,*,#102,.F.);
#128=ORIENTED_EDGE('',*,*,#103,.F.);
#129=ORIENTED_EDGE('',*,*,#104,.T.);
#130=ORIENTED_EDGE('',*,*,#105,.T.);
#131=ORIENTED_EDGE('',*,*,#104,.F.);
#132=ORIENTED_EDGE('',*,*,#106,.T.);
#133=ORIENTED_EDGE('',*,*,#107,.T.);
#134=ORIENTED_EDGE('',*,*,#108,.F.);
#135=ORIENTED_EDGE('',*,*,#107,.F.);
#136=ORIENTED_EDGE('',*,*,#109,.F.);
#137=ORIENTED_EDGE('',*,*,#110,.T.);
#138=ORIENTED_EDGE('',*,*,#103,.T.);
#139=ORIENTED_EDGE('',*,*,#110,.F.);
#140=ORIENTED_EDGE('',*,*,#111,.T.);
#141=ORIENTED_EDGE('',*,*,#112,.T.);
#142=ORIENTED_EDGE('',*,*,#113,.T.);
#143=ORIENTED_EDGE('',*,*,#112,.F.);
#144=ORIENTED_EDGE('',*,*,#114,.F.);
#145=ORIENTED_EDGE('',*,*,#115,.T.);
#146=ORIENTED_EDGE('',*,*,#116,.T.);
#147=ORIENTED_EDGE('',*,*,#111,.F.);
#148=ORIENTED_EDGE('',*,*,#116,.F.);
#149=ORIENTED_EDGE('',*,*,#117,.T.);
#150=ORIENTED_EDGE('',*,*,#118,.F.);
#151=ORIENTED_EDGE('',*,*,#109,.T.);
#152=ORIENTED_EDGE('',*,*,#113,.F.);
#153=ORIENTED_EDGE('',*,*,#115,.F.);
#154=ORIENTED_EDGE('',*,*,#114,.T.);
#155=ORIENTED_EDGE('',*,*,#118,.T.);
#156=ORIENTED_EDGE('',*,*,#117,.F.);
#157=ORIENTED_EDGE('',*,*,#108,.T.);
#158=ORIENTED_EDGE('',*,*,#106,.F.);
#159=ORIENTED_EDGE('',*,*,#119,.T.);
#160=ORIENTED_EDGE('',*,*,#119,.F.);
#161=ORIENTED_EDGE('',*,*,#105,.F.);
#162=ORIENTED_EDGE('',*,*,#101,.F.);
#163=ORIENTED_EDGE('',*,*,#100,.F.);
#164=CONICAL_SURFACE('',#192,0.0295275590566578,0.785398163397448);
#165=CONICAL_SURFACE('',#197,0.0393700787347506,0.785398163397448);
#166=ADVANCED_FACE('',(#30),#164,.T.);
#167=ADVANCED_FACE('',(#31),#26,.T.);
#168=ADVANCED_FACE('',(#32),#165,.T.);
#169=ADVANCED_FACE('',(#33),#27,.T.);
#170=ADVANCED_FACE('',(#34),#28,.T.);
#171=ADVANCED_FACE('',(#35),#29,.T.);
#172=ADVANCED_FACE('',(#36),#25,.T.);
#173=ADVANCED_FACE('',(#37,#16),#19,.T.);
#174=ADVANCED_FACE('',(#38,#17),#20,.T.);
#175=ADVANCED_FACE('',(#39),#15,.T.);
#176=ADVANCED_FACE('',(#40,#18),#21,.F.);
#177=ADVANCED_FACE('',(#41),#22,.F.);
#178=CLOSED_SHELL('',(#166,#167,#168,#169,#170,#171,#172,#173,#174,#175,
#176,#177));
#179=DERIVED_UNIT_ELEMENT(#181,1.);
#180=DERIVED_UNIT_ELEMENT(#407,-3.);
#181=(
MASS_UNIT()
NAMED_UNIT(*)
SI_UNIT(.KILO.,.GRAM.)
);
#182=DERIVED_UNIT((#179,#180));
#183=MEASURE_REPRESENTATION_ITEM('density measure',
POSITIVE_RATIO_MEASURE(7850.),#182);
#184=PROPERTY_DEFINITION_REPRESENTATION(#189,#186);
#185=PROPERTY_DEFINITION_REPRESENTATION(#190,#187);
#186=REPRESENTATION('material name',(#188),#402);
#187=REPRESENTATION('density',(#183),#402);
#188=DESCRIPTIVE_REPRESENTATION_ITEM('Acciaio','Acciaio');
#189=PROPERTY_DEFINITION('material property','material name',#415);
#190=PROPERTY_DEFINITION('material property','density of part',#415);
#191=AXIS2_PLACEMENT_3D('',#278,#218,#219);
#192=AXIS2_PLACEMENT_3D('',#279,#220,#221);
#193=AXIS2_PLACEMENT_3D('',#281,#222,#223);
#194=AXIS2_PLACEMENT_3D('',#284,#225,#226);
#195=AXIS2_PLACEMENT_3D('',#285,#227,#228);
#196=AXIS2_PLACEMENT_3D('',#287,#229,#230);
#197=AXIS2_PLACEMENT_3D('',#289,#232,#233);
#198=AXIS2_PLACEMENT_3D('',#291,#234,#235);
#199=AXIS2_PLACEMENT_3D('',#294,#237,#238);
#200=AXIS2_PLACEMENT_3D('',#295,#239,#240);
#201=AXIS2_PLACEMENT_3D('',#297,#241,#242);
#202=AXIS2_PLACEMENT_3D('',#300,#244,#245);
#203=AXIS2_PLACEMENT_3D('',#301,#246,#247);
#204=AXIS2_PLACEMENT_3D('',#303,#248,#249);
#205=AXIS2_PLACEMENT_3D('',#305,#251,#252);
#206=AXIS2_PLACEMENT_3D('',#307,#253,#254);
#207=AXIS2_PLACEMENT_3D('',#310,#256,#257);
#208=AXIS2_PLACEMENT_3D('',#311,#258,#259);
#209=AXIS2_PLACEMENT_3D('',#352,#260,#261);
#210=AXIS2_PLACEMENT_3D('',#353,#262,#263);
#211=AXIS2_PLACEMENT_3D('',#355,#264,#265);
#212=AXIS2_PLACEMENT_3D('',#393,#266,#267);
#213=AXIS2_PLACEMENT_3D('',#394,#268,#269);
#214=AXIS2_PLACEMENT_3D('',#395,#270,#271);
#215=AXIS2_PLACEMENT_3D('',#397,#272,#273);
#216=AXIS2_PLACEMENT_3D('',#398,#274,#275);
#217=AXIS2_PLACEMENT_3D('',#399,#276,#277);
#218=DIRECTION('axis',(0.,0.,1.));
#219=DIRECTION('refdir',(1.,0.,0.));
#220=DIRECTION('center_axis',(0.,-2.17527095873244E-16,1.));
#221=DIRECTION('ref_axis',(0.,-1.,-2.17527095873244E-16));
#222=DIRECTION('center_axis',(0.,-2.22044604925031E-16,1.));
#223=DIRECTION('ref_axis',(0.,-1.,-2.22044604925031E-16));
#224=DIRECTION('',(8.65956056235493E-17,-0.707106781186547,-0.707106781186548));
#225=DIRECTION('center_axis',(0.,-2.17527095873244E-16,1.));
#226=DIRECTION('ref_axis',(0.,-1.,-2.17527095873244E-16));
#227=DIRECTION('center_axis',(0.,-2.22044604925031E-16,1.));
#228=DIRECTION('ref_axis',(0.,-1.,-2.22044604925031E-16));
#229=DIRECTION('center_axis',(0.,2.22044604925031E-16,-1.));
#230=DIRECTION('ref_axis',(0.,-1.,-2.22044604925031E-16));
#231=DIRECTION('',(0.,2.22044604925031E-16,-1.));
#232=DIRECTION('center_axis',(0.,-1.67834496293311E-16,1.));
#233=DIRECTION('ref_axis',(0.,-1.,-1.67834496293311E-16));
#234=DIRECTION('center_axis',(0.,-2.22044604925031E-16,1.));
#235=DIRECTION('ref_axis',(0.,-1.,-2.22044604925031E-16));
#236=DIRECTION('',(8.65956056235493E-17,-0.707106781186547,-0.707106781186548));
#237=DIRECTION('center_axis',(0.,-1.67834496293311E-16,1.));
#238=DIRECTION('ref_axis',(0.,-1.,-1.67834496293311E-16));
#239=DIRECTION('center_axis',(0.,-2.22044604925031E-16,1.));
#240=DIRECTION('ref_axis',(0.,-1.,-2.22044604925031E-16));
#241=DIRECTION('center_axis',(0.,2.22044604925031E-16,-1.));
#242=DIRECTION('ref_axis',(0.,-1.,-2.22044604925031E-16));
#243=DIRECTION('',(0.,2.22044604925031E-16,-1.));
#244=DIRECTION('center_axis',(0.,2.22044604925031E-16,-1.));
#245=DIRECTION('ref_axis',(0.,-1.,-2.22044604925031E-16));
#246=DIRECTION('center_axis',(0.,-2.22044604925031E-16,1.));
#247=DIRECTION('ref_axis',(0.,-1.,-2.22044604925031E-16));
#248=DIRECTION('center_axis',(0.,-2.22044604925031E-16,1.));
#249=DIRECTION('ref_axis',(0.,-1.,-2.22044604925031E-16));
#250=DIRECTION('',(0.,2.22044604925031E-16,-1.));
#251=DIRECTION('center_axis',(0.,-2.22044604925031E-16,1.));
#252=DIRECTION('ref_axis',(0.,-1.,-2.22044604925031E-16));
#253=DIRECTION('center_axis',(0.,2.22044604925031E-16,-1.));
#254=DIRECTION('ref_axis',(0.,-1.,-2.22044604925031E-16));
#255=DIRECTION('',(0.,2.22044604925031E-16,-1.));
#256=DIRECTION('center_axis',(0.,-2.22044604925031E-16,1.));
#257=DIRECTION('ref_axis',(0.,-1.,-2.22044604925031E-16));
#258=DIRECTION('center_axis',(-1.30610483424612E-31,-5.83445329086746E-16,
1.));
#259=DIRECTION('ref_axis',(-2.83216339756648E-47,-1.,-4.69994413757858E-16));
#260=DIRECTION('center_axis',(0.,5.83445329086746E-16,-1.));
#261=DIRECTION('ref_axis',(-1.,3.67394039744206E-17,2.14354336423067E-32));
#262=DIRECTION('center_axis',(-1.,-1.22464679914735E-16,-2.02061928898967E-31));
#263=DIRECTION('ref_axis',(-1.22464679914735E-16,1.,7.4014868308324E-16));
#264=DIRECTION('center_axis',(0.,5.83445329086746E-16,-1.));
#265=DIRECTION('ref_axis',(-1.,3.67394039744206E-17,2.14354336423067E-32));
#266=DIRECTION('center_axis',(0.,-2.22044604925031E-16,1.));
#267=DIRECTION('ref_axis',(0.,-1.,-2.22044604925031E-16));
#268=DIRECTION('center_axis',(0.,-2.22044604925031E-16,1.));
#269=DIRECTION('ref_axis',(0.,-1.,-2.22044604925031E-16));
#270=DIRECTION('center_axis',(-6.02334540269591E-17,-8.02922999463681E-16,
-1.));
#271=DIRECTION('ref_axis',(2.90245518721423E-32,-1.,0.));
#272=DIRECTION('center_axis',(1.,-1.22464679914735E-16,-6.0233454026959E-17));
#273=DIRECTION('ref_axis',(1.22464679914735E-16,1.,-1.23358113847212E-15));
#274=DIRECTION('center_axis',(0.,-2.22044604925031E-16,1.));
#275=DIRECTION('ref_axis',(0.,-1.,-2.22044604925031E-16));
#276=DIRECTION('center_axis',(0.,-2.22044604925031E-16,1.));
#277=DIRECTION('ref_axis',(0.,-1.,-2.22044604925031E-16));
#278=CARTESIAN_POINT('',(0.,0.,0.));
#279=CARTESIAN_POINT('Origin',(0.,-4.37095678876562E-19,0.00196850393651374));
#280=CARTESIAN_POINT('',(-3.61608306847345E-18,0.0295275590561386,0.00196850393599451));
#281=CARTESIAN_POINT('Origin',(0.,-4.37095678986107E-19,0.00196850393700709));
#282=CARTESIAN_POINT('',(-3.37501086376692E-18,0.0275590551179061,-2.23792372975178E-12));
#283=CARTESIAN_POINT('',(-3.61608306853704E-18,0.0295275590566578,0.00196850393651375));
#284=CARTESIAN_POINT('Origin',(0.,-8.89273386486956E-21,-2.23792960962773E-12));
#285=CARTESIAN_POINT('Origin',(0.,1.74838271594513E-18,-0.0078740157480315));
#286=CARTESIAN_POINT('',(-3.61608306834945E-18,0.029527559055126,0.031496062992126));
#287=CARTESIAN_POINT('Origin',(0.,-6.99353086378051E-18,0.031496062992126));
#288=CARTESIAN_POINT('',(-3.61608306834945E-18,0.029527559055126,-0.00787401574803149));
#289=CARTESIAN_POINT('Origin',(0.,-7.43062654288924E-18,0.0334645669296853));
#290=CARTESIAN_POINT('',(-4.82144409076647E-18,0.0393700787371783,0.033464566932113));
#291=CARTESIAN_POINT('Origin',(0.,-7.43062654276679E-18,0.0334645669291339));
#292=CARTESIAN_POINT('',(-4.58037188624718E-18,0.0374015748004748,0.0314960629954095));
#293=CARTESIAN_POINT('',(-4.82144409046917E-18,0.0393700787347506,0.0334645669296853));
#294=CARTESIAN_POINT('Origin',(0.,-7.10024367662865E-18,0.0314960629954095));
#295=CARTESIAN_POINT('Origin',(0.,1.74838271594513E-18,-0.0078740157480315));
#296=CARTESIAN_POINT('',(-2.16964984100957E-18,0.0177165354330748,0.139763779527559));
#297=CARTESIAN_POINT('Origin',(0.,-3.1033793208026E-17,0.139763779527559));
#298=CARTESIAN_POINT('',(-2.16964984100957E-18,0.0177165354330748,0.110236220472441));
#299=CARTESIAN_POINT('',(-2.16964984100957E-18,0.0177165354330748,-0.00787401574803149));
#300=CARTESIAN_POINT('Origin',(0.,-2.44773580232318E-17,0.110236220472441));
#301=CARTESIAN_POINT('Origin',(0.,1.74838271594513E-18,-0.0078740157480315));
#302=CARTESIAN_POINT('',(-4.82144409113131E-18,0.0393700787401575,0.0511811023622047));
#303=CARTESIAN_POINT('Origin',(0.,-1.13644876536433E-17,0.0511811023622047));
#304=CARTESIAN_POINT('',(-4.82144409113131E-18,0.0393700787401575,-0.00787401574803149));
#305=CARTESIAN_POINT('Origin',(0.,1.74838271594513E-18,-0.0078740157480315));
#306=CARTESIAN_POINT('',(-3.61608306834945E-18,0.029527559055126,0.104330708661417));
#307=CARTESIAN_POINT('Origin',(0.,-2.31660709862729E-17,0.104330708661417));
#308=CARTESIAN_POINT('',(-3.61608306834945E-18,0.029527559055126,0.0511811023622047));
#309=CARTESIAN_POINT('',(-3.61608306834945E-18,0.029527559055126,-0.00787401574803149));
#310=CARTESIAN_POINT('Origin',(0.,-1.13644876536433E-17,0.0511811023622047));
#311=CARTESIAN_POINT('Origin',(0.,-2.24782479685633E-17,0.104330708661417));
#312=CARTESIAN_POINT('',(-0.0236220472441024,-2.27416381504239E-17,0.110236220472441));
#313=CARTESIAN_POINT('',(6.51983605391278E-11,-0.02362204724416,0.110236220472441));
#314=CARTESIAN_POINT('Ctrl Pts',(-0.0236220472441024,-2.21250763300744E-17,
0.110236220472441));
#315=CARTESIAN_POINT('Ctrl Pts',(-0.0236220472441024,-0.00204510212478675,
0.110236220472441));
#316=CARTESIAN_POINT('Ctrl Pts',(-0.0233637114339154,-0.00404412793571883,
0.110236219922968));
#317=CARTESIAN_POINT('Ctrl Pts',(-0.0228495254198306,-0.00599777187467311,
0.110236220270512));
#318=CARTESIAN_POINT('Ctrl Pts',(-0.0227986129210482,-0.00619121333737092,
0.110236220304924));
#319=CARTESIAN_POINT('Ctrl Pts',(-0.0227451510960803,-0.00638419959356316,
0.110236220346396));
#320=CARTESIAN_POINT('Ctrl Pts',(-0.0226891162050548,-0.00657672176276125,
0.11023622038451));
#321=CARTESIAN_POINT('Ctrl Pts',(-0.0224965375759818,-0.00723837479236109,
0.110236220515496));
#322=CARTESIAN_POINT('Ctrl Pts',(-0.0222922907750605,-0.00784686060039836,
0.110236220461652));
#323=CARTESIAN_POINT('Ctrl Pts',(-0.0220258741688454,-0.00853557619416773,
0.110236220471111));
#324=CARTESIAN_POINT('Ctrl Pts',(-0.0220054834562283,-0.00858828838034487,
0.110236220471834));
#325=CARTESIAN_POINT('Ctrl Pts',(-0.0219847047579543,-0.00864146158569621,
0.110236220472441));
#326=CARTESIAN_POINT('Ctrl Pts',(-0.0219635031747104,-0.00869515061957472,
0.110236220472441));
#327=CARTESIAN_POINT('Ctrl Pts',(-0.0211104678797653,-0.0108553025442219,
0.110236220472441));
#328=CARTESIAN_POINT('Ctrl Pts',(-0.0199570499242972,-0.0128439339329437,
0.110236220477992));
#329=CARTESIAN_POINT('Ctrl Pts',(-0.018534040285218,-0.0146442230284627,
0.11023622041995));
#330=CARTESIAN_POINT('Ctrl Pts',(-0.0179671696283416,-0.015361386871994,
0.110236220396828));
#331=CARTESIAN_POINT('Ctrl Pts',(-0.0173569320594393,-0.016048513267102,
0.110236220472441));
#332=CARTESIAN_POINT('Ctrl Pts',(-0.0167033097918138,-0.0167033097918138,
0.110236220472441));
#333=CARTESIAN_POINT('Ctrl Pts',(-0.0152604204250917,-0.0181487913637706,
0.110236220472441));
#334=CARTESIAN_POINT('Ctrl Pts',(-0.0136683121619318,-0.0193770954783878,
0.110236218494416));
#335=CARTESIAN_POINT('Ctrl Pts',(-0.011929508504779,-0.0203925682184484,
0.110236219390536));
#336=CARTESIAN_POINT('Ctrl Pts',(-0.0115945994528387,-0.020588157301348,
0.110236219563137));
#337=CARTESIAN_POINT('Ctrl Pts',(-0.0112541621564705,-0.0207757208155981,
0.110236219833252));
#338=CARTESIAN_POINT('Ctrl Pts',(-0.0109081182368541,-0.020955089205342,
0.110236220080209));
#339=CARTESIAN_POINT('Ctrl Pts',(-0.0102766408680129,-0.0212824091563306,
0.110236220530867));
#340=CARTESIAN_POINT('Ctrl Pts',(-0.00957546934205653,-0.0216047834406516,
0.110236220466384));
#341=CARTESIAN_POINT('Ctrl Pts',(-0.00894079503262933,-0.0218645024601611,
0.11023622047067));
#342=CARTESIAN_POINT('Ctrl Pts',(-0.00885763406098123,-0.0218985332783258,
0.110236220471232));
#343=CARTESIAN_POINT('Ctrl Pts',(-0.0087756429679027,-0.0219315568223534,
0.110236220472441));
#344=CARTESIAN_POINT('Ctrl Pts',(-0.00869515062360113,-0.0219635031731124,
0.110236220472441));
#345=CARTESIAN_POINT('Ctrl Pts',(-0.00643607073992121,-0.0228601022097397,
0.110236220472441));
#346=CARTESIAN_POINT('Ctrl Pts',(-0.00407938306672344,-0.0233910763504399,
0.110236220397265));
#347=CARTESIAN_POINT('Ctrl Pts',(-0.0016712728270023,-0.0235620884535787,
0.110236220423412));
#348=CARTESIAN_POINT('Ctrl Pts',(-0.00111684055185705,-0.0236014614971614,
0.110236220429432));
#349=CARTESIAN_POINT('Ctrl Pts',(-0.000559590297261177,-0.0236215524503329,
0.110236220472441));
#350=CARTESIAN_POINT('Ctrl Pts',(6.51983605391278E-11,-0.02362204724416,
0.110236220472441));
#351=CARTESIAN_POINT('',(-2.89286645467975E-18,0.0236220472441023,0.110236220472441));
#352=CARTESIAN_POINT('Origin',(0.,-2.36094980868279E-17,0.110236220472441));
#353=CARTESIAN_POINT('Origin',(-2.89286645467975E-18,0.0236220472441023,
0.104330708661417));
#354=CARTESIAN_POINT('',(0.0236220472441024,-2.44773580232318E-17,0.110236220472441));
#355=CARTESIAN_POINT('Origin',(0.,-2.36094980868279E-17,0.110236220472441));
#356=CARTESIAN_POINT('Ctrl Pts',(6.51983605391278E-11,-0.02362204724416,
0.110236220472441));
#357=CARTESIAN_POINT('Ctrl Pts',(0.00149505203598895,-0.023623369179876,
0.110236220472441));
#358=CARTESIAN_POINT('Ctrl Pts',(0.0029671739316649,-0.0234858181414697,
0.110236218834753));
#359=CARTESIAN_POINT('Ctrl Pts',(0.004416365694734,-0.0232093941323169,
0.110236219255242));
#360=CARTESIAN_POINT('Ctrl Pts',(0.00514096158676631,-0.0230711821257381,
0.110236219465486));
#361=CARTESIAN_POINT('Ctrl Pts',(0.00585982494551489,-0.0228982518753108,
0.11023622006298));
#362=CARTESIAN_POINT('Ctrl Pts',(0.00657295576398741,-0.0226906033827769,
0.110236220306646));
#363=CARTESIAN_POINT('Ctrl Pts',(0.00724018513953008,-0.0224963204119435,
0.110236220534629));
#364=CARTESIAN_POINT('Ctrl Pts',(0.00785533544519111,-0.0222895538556745,
0.110236220462756));
#365=CARTESIAN_POINT('Ctrl Pts',(0.00855052239462447,-0.0220200891319513,
0.110236220471352));
#366=CARTESIAN_POINT('Ctrl Pts',(0.00859834715362737,-0.0220015515493883,
0.110236220471944));
#367=CARTESIAN_POINT('Ctrl Pts',(0.00864654342594126,-0.0219826979597089,
0.110236220472441));
#368=CARTESIAN_POINT('Ctrl Pts',(0.0086951506195747,-0.0219635031747104,
0.110236220472441));
#369=CARTESIAN_POINT('Ctrl Pts',(0.010855302544222,-0.0211104678797655,
0.110236220472441));
#370=CARTESIAN_POINT('Ctrl Pts',(0.0128439339329441,-0.0199570499242972,
0.110236220477992));
#371=CARTESIAN_POINT('Ctrl Pts',(0.0146442230284635,-0.0185340402852174,
0.11023622041995));
#372=CARTESIAN_POINT('Ctrl Pts',(0.0153613868719945,-0.0179671696283412,
0.110236220396828));
#373=CARTESIAN_POINT('Ctrl Pts',(0.0160485132671022,-0.0173569320594391,
0.110236220472441));
#374=CARTESIAN_POINT('Ctrl Pts',(0.0167033097918138,-0.0167033097918138,
0.110236220472441));
#375=CARTESIAN_POINT('Ctrl Pts',(0.0181487913637707,-0.0152604204250916,
0.110236220472441));
#376=CARTESIAN_POINT('Ctrl Pts',(0.0193770954783879,-0.0136683121619318,
0.110236218494416));
#377=CARTESIAN_POINT('Ctrl Pts',(0.0203925682184483,-0.0119295085047793,
0.110236219390536));
#378=CARTESIAN_POINT('Ctrl Pts',(0.020588157301348,-0.0115945994528388,
0.110236219563137));
#379=CARTESIAN_POINT('Ctrl Pts',(0.0207757208155982,-0.0112541621564705,
0.110236219833252));
#380=CARTESIAN_POINT('Ctrl Pts',(0.0209550892053422,-0.0109081182368539,
0.110236220080209));
#381=CARTESIAN_POINT('Ctrl Pts',(0.0212845021832645,-0.0102726029255133,
0.110236220533749));
#382=CARTESIAN_POINT('Ctrl Pts',(0.0216082984139057,-0.00956779747841592,
0.11023622046607));
#383=CARTESIAN_POINT('Ctrl Pts',(0.021869298260416,-0.00892906628960598,
0.110236220470746));
#384=CARTESIAN_POINT('Ctrl Pts',(0.0219016212698909,-0.0088499638895707,
0.110236220471325));
#385=CARTESIAN_POINT('Ctrl Pts',(0.0219330423505278,-0.00877190001628402,
0.110236220472441));
#386=CARTESIAN_POINT('Ctrl Pts',(0.0219635031747104,-0.00869515061957471,
0.110236220472441));
#387=CARTESIAN_POINT('Ctrl Pts',(0.0227170007037344,-0.00679663072307333,
0.110236220472441));
#388=CARTESIAN_POINT('Ctrl Pts',(0.0232088263042225,-0.00484488127585562,
0.110236220395198));
#389=CARTESIAN_POINT('Ctrl Pts',(0.0234509494452793,-0.00284242291929141,
0.110236220448196));
#390=CARTESIAN_POINT('Ctrl Pts',(0.0235641222268536,-0.00190643728318057,
0.110236220472968));
#391=CARTESIAN_POINT('Ctrl Pts',(0.0236220472441024,-0.000959047376285947,
0.110236220472441));
#392=CARTESIAN_POINT('Ctrl Pts',(0.0236220472441024,-2.21250763300744E-17,
0.110236220472441));
#393=CARTESIAN_POINT('Origin',(0.,-1.13644876536433E-17,0.0511811023622047));
#394=CARTESIAN_POINT('Origin',(0.,-2.44773580232318E-17,0.110236220472441));
#395=CARTESIAN_POINT('Origin',(0.,-2.99489682875212E-17,0.139763779527559));
#396=CARTESIAN_POINT('',(1.0671281225251E-18,-7.00935941770234E-18,0.157480314960634));
#397=CARTESIAN_POINT('Origin',(0.,-2.99489682875212E-17,0.139763779527559));
#398=CARTESIAN_POINT('Origin',(0.,-6.99353086378051E-18,0.031496062992126));
#399=CARTESIAN_POINT('Origin',(0.,0.,0.));
#400=UNCERTAINTY_MEASURE_WITH_UNIT(LENGTH_MEASURE(0.000393700787401575),
#405,'DISTANCE_ACCURACY_VALUE',
'Maximum model space distance between geometric entities at asserted c
onnectivities');
#401=UNCERTAINTY_MEASURE_WITH_UNIT(LENGTH_MEASURE(0.000393700787401575),
#405,'DISTANCE_ACCURACY_VALUE',
'Maximum model space distance between geometric entities at asserted c
onnectivities');
#402=(
GEOMETRIC_REPRESENTATION_CONTEXT(3)
GLOBAL_UNCERTAINTY_ASSIGNED_CONTEXT((#400))
GLOBAL_UNIT_ASSIGNED_CONTEXT((#405,#409,#410))
REPRESENTATION_CONTEXT('','3D')
);
#403=(
GEOMETRIC_REPRESENTATION_CONTEXT(3)
GLOBAL_UNCERTAINTY_ASSIGNED_CONTEXT((#401))
GLOBAL_UNIT_ASSIGNED_CONTEXT((#405,#409,#410))
REPRESENTATION_CONTEXT('','3D')
);
#404=DIMENSIONAL_EXPONENTS(1.,0.,0.,0.,0.,0.,0.);
#405=(
CONVERSION_BASED_UNIT('inch',#408)
LENGTH_UNIT()
NAMED_UNIT(#404)
);
#406=(
LENGTH_UNIT()
NAMED_UNIT(*)
SI_UNIT(.MILLI.,.METRE.)
);
#407=(
LENGTH_UNIT()
NAMED_UNIT(*)
SI_UNIT($,.METRE.)
);
#408=LENGTH_MEASURE_WITH_UNIT(LENGTH_MEASURE(25.4),#406);
#409=(
NAMED_UNIT(*)
PLANE_ANGLE_UNIT()
SI_UNIT($,.RADIAN.)
);
#410=(
NAMED_UNIT(*)
SI_UNIT($,.STERADIAN.)
SOLID_ANGLE_UNIT()
);
#411=SHAPE_DEFINITION_REPRESENTATION(#412,#413);
#412=PRODUCT_DEFINITION_SHAPE('',$,#415);
#413=SHAPE_REPRESENTATION('',(#191),#402);
#414=PRODUCT_DEFINITION_CONTEXT('part definition',#419,'design');
#415=PRODUCT_DEFINITION('Same_Sky_CPG-43-TH-TR',
'Same_Sky_CPG-43-TH-TR v1',#416,#414);
#416=PRODUCT_DEFINITION_FORMATION('',$,#421);
#417=PRODUCT_RELATED_PRODUCT_CATEGORY('Same_Sky_CPG-43-TH-TR v1',
'Same_Sky_CPG-43-TH-TR v1',(#421));
#418=APPLICATION_PROTOCOL_DEFINITION('international standard',
'automotive_design',2009,#419);
#419=APPLICATION_CONTEXT(
'Core Data for Automotive Mechanical Design Process');
#420=PRODUCT_CONTEXT('part definition',#419,'mechanical');
#421=PRODUCT('Same_Sky_CPG-43-TH-TR','Same_Sky_CPG-43-TH-TR v1',
'STEP AP214',(#420));
#422=PRESENTATION_STYLE_ASSIGNMENT((#424));
#423=PRESENTATION_STYLE_ASSIGNMENT((#425));
#424=SURFACE_STYLE_USAGE(.BOTH.,#426);
#425=SURFACE_STYLE_USAGE(.BOTH.,#427);
#426=SURFACE_SIDE_STYLE('',(#428));
#427=SURFACE_SIDE_STYLE('',(#429));
#428=SURFACE_STYLE_FILL_AREA(#430);
#429=SURFACE_STYLE_FILL_AREA(#431);
#430=FILL_AREA_STYLE('Acciaio - Satinato',(#432));
#431=FILL_AREA_STYLE('Oro - Lucidato',(#433));
#432=FILL_AREA_STYLE_COLOUR('Acciaio - Satinato',#434);
#433=FILL_AREA_STYLE_COLOUR('Oro - Lucidato',#435);
#434=COLOUR_RGB('Acciaio - Satinato',0.627450980392157,0.627450980392157,
0.627450980392157);
#435=COLOUR_RGB('Oro - Lucidato',0.956862745098039,0.898039215686275,0.654901960784314);
ENDSEC;
END-ISO-10303-21;
