ISO-10303-21;
HEADER;
/* Generated by software containing ST-Developer
 * from STEP Tools, Inc. (www.steptools.com) 
 */

FILE_DESCRIPTION(
/* description */ ('STEP AP214'),
/* implementation_level */ '2;1');

FILE_NAME(
/* name */ 'Same_Sky_CPG-42-TH-TR v1.step',
/* time_stamp */ '2025-04-24T18:32:06+02:00',
/* author */ (''),
/* organization */ (''),
/* preprocessor_version */ 'ST-DEVELOPER v20.1',
/* originating_system */ 'Autodesk Translation Framework v14.4.0.0',
/* authorisation */ '');

FILE_SCHEMA (('AUTOMOTIVE_DESIGN { 1 0 10303 214 3 1 1 }'));
ENDSEC;

DATA;
#10=MECHANICAL_DESIGN_GEOMETRIC_PRESENTATION_REPRESENTATION('',(#13),#362);
#11=SHAPE_REPRESENTATION_RELATIONSHIP('SRR','None',#372,#12);
#12=ADVANCED_BREP_SHAPE_REPRESENTATION('',(#14),#361);
#13=STYLED_ITEM('',(#382),#14);
#14=MANIFOLD_SOLID_BREP('Corpo1',#192);
#15=SPHERICAL_SURFACE('',#233,0.0176181102362225);
#16=FACE_BOUND('',#50,.T.);
#17=FACE_BOUND('',#52,.T.);
#18=FACE_BOUND('',#54,.T.);
#19=PLANE('',#230);
#20=PLANE('',#231);
#21=PLANE('',#232);
#22=PLANE('',#235);
#23=TOROIDAL_SURFACE('',#227,0.0209702426457587,0.00787401574802927);
#24=CYLINDRICAL_SURFACE('',#209,0.0157368190933265);
#25=CYLINDRICAL_SURFACE('',#211,0.0176181102362261);
#26=CYLINDRICAL_SURFACE('',#218,0.039358866337425);
#27=CYLINDRICAL_SURFACE('',#225,0.0295163466523856);
#28=FACE_OUTER_BOUND('',#41,.T.);
#29=FACE_OUTER_BOUND('',#42,.T.);
#30=FACE_OUTER_BOUND('',#43,.T.);
#31=FACE_OUTER_BOUND('',#44,.T.);
#32=FACE_OUTER_BOUND('',#45,.T.);
#33=FACE_OUTER_BOUND('',#46,.T.);
#34=FACE_OUTER_BOUND('',#47,.T.);
#35=FACE_OUTER_BOUND('',#48,.T.);
#36=FACE_OUTER_BOUND('',#49,.T.);
#37=FACE_OUTER_BOUND('',#51,.T.);
#38=FACE_OUTER_BOUND('',#53,.T.);
#39=FACE_OUTER_BOUND('',#55,.T.);
#40=FACE_OUTER_BOUND('',#56,.T.);
#41=EDGE_LOOP('',(#128,#129,#130,#131));
#42=EDGE_LOOP('',(#132,#133,#134,#135));
#43=EDGE_LOOP('',(#136,#137,#138,#139,#140));
#44=EDGE_LOOP('',(#141,#142,#143,#144));
#45=EDGE_LOOP('',(#145,#146,#147,#148));
#46=EDGE_LOOP('',(#149,#150,#151,#152,#153,#154));
#47=EDGE_LOOP('',(#155,#156,#157,#158,#159));
#48=EDGE_LOOP('',(#160,#161,#162,#163,#164));
#49=EDGE_LOOP('',(#165));
#50=EDGE_LOOP('',(#166));
#51=EDGE_LOOP('',(#167));
#52=EDGE_LOOP('',(#168));
#53=EDGE_LOOP('',(#169));
#54=EDGE_LOOP('',(#170));
#55=EDGE_LOOP('',(#171,#172,#173,#174));
#56=EDGE_LOOP('',(#175));
#57=LINE('',#310,#64);
#58=LINE('',#315,#65);
#59=LINE('',#321,#66);
#60=LINE('',#328,#67);
#61=LINE('',#333,#68);
#62=LINE('',#340,#69);
#63=LINE('',#346,#70);
#64=VECTOR('',#242,0.0157368190948187);
#65=VECTOR('',#249,0.0157368190933265);
#66=VECTOR('',#254,0.0176181102362261);
#67=VECTOR('',#263,0.0393588663329841);
#68=VECTOR('',#270,0.039358866337425);
#69=VECTOR('',#277,0.0295163466513557);
#70=VECTOR('',#284,0.0295163466523856);
#71=CIRCLE('',#207,0.0157368190933265);
#72=CIRCLE('',#208,0.0117991197999283);
#73=CIRCLE('',#210,0.0157368190933265);
#74=CIRCLE('',#212,0.0176181102362261);
#75=CIRCLE('',#213,0.0176181102362261);
#76=CIRCLE('',#214,0.0176181102362261);
#77=CIRCLE('',#216,0.039358866337425);
#78=CIRCLE('',#217,0.0354218584644325);
#79=CIRCLE('',#219,0.039358866337425);
#80=CIRCLE('',#221,0.0295163466523856);
#81=CIRCLE('',#222,0.0295163466523856);
#82=CIRCLE('',#223,0.0287246344015109);
#83=CIRCLE('',#224,0.0287246344015109);
#84=CIRCLE('',#226,0.0295163466523856);
#85=CIRCLE('',#228,0.0209702426457548);
#86=CIRCLE('',#229,0.00787401574802927);
#87=CIRCLE('',#234,0.0176181102362225);
#88=VERTEX_POINT('',#307);
#89=VERTEX_POINT('',#309);
#90=VERTEX_POINT('',#313);
#91=VERTEX_POINT('',#317);
#92=VERTEX_POINT('',#318);
#93=VERTEX_POINT('',#320);
#94=VERTEX_POINT('',#325);
#95=VERTEX_POINT('',#327);
#96=VERTEX_POINT('',#331);
#97=VERTEX_POINT('',#335);
#98=VERTEX_POINT('',#336);
#99=VERTEX_POINT('',#339);
#100=VERTEX_POINT('',#341);
#101=VERTEX_POINT('',#345);
#102=VERTEX_POINT('',#349);
#103=VERTEX_POINT('',#356);
#104=EDGE_CURVE('',#88,#88,#71,.T.);
#105=EDGE_CURVE('',#88,#89,#57,.T.);
#106=EDGE_CURVE('',#89,#89,#72,.T.);
#107=EDGE_CURVE('',#90,#90,#73,.T.);
#108=EDGE_CURVE('',#90,#88,#58,.T.);
#109=EDGE_CURVE('',#91,#92,#74,.T.);
#110=EDGE_CURVE('',#92,#93,#59,.T.);
#111=EDGE_CURVE('',#93,#93,#75,.T.);
#112=EDGE_CURVE('',#92,#91,#76,.T.);
#113=EDGE_CURVE('',#94,#94,#77,.T.);
#114=EDGE_CURVE('',#94,#95,#60,.T.);
#115=EDGE_CURVE('',#95,#95,#78,.T.);
#116=EDGE_CURVE('',#96,#96,#79,.T.);
#117=EDGE_CURVE('',#96,#94,#61,.T.);
#118=EDGE_CURVE('',#97,#98,#80,.T.);
#119=EDGE_CURVE('',#98,#97,#81,.T.);
#120=EDGE_CURVE('',#98,#99,#62,.T.);
#121=EDGE_CURVE('',#99,#100,#82,.T.);
#122=EDGE_CURVE('',#100,#99,#83,.T.);
#123=EDGE_CURVE('',#97,#101,#63,.T.);
#124=EDGE_CURVE('',#101,#101,#84,.T.);
#125=EDGE_CURVE('',#102,#102,#85,.T.);
#126=EDGE_CURVE('',#102,#100,#86,.T.);
#127=EDGE_CURVE('',#91,#103,#87,.T.);
#128=ORIENTED_EDGE('',*,*,#104,.F.);
#129=ORIENTED_EDGE('',*,*,#105,.T.);
#130=ORIENTED_EDGE('',*,*,#106,.T.);
#131=ORIENTED_EDGE('',*,*,#105,.F.);
#132=ORIENTED_EDGE('',*,*,#107,.F.);
#133=ORIENTED_EDGE('',*,*,#108,.T.);
#134=ORIENTED_EDGE('',*,*,#104,.T.);
#135=ORIENTED_EDGE('',*,*,#108,.F.);
#136=ORIENTED_EDGE('',*,*,#109,.T.);
#137=ORIENTED_EDGE('',*,*,#110,.T.);
#138=ORIENTED_EDGE('',*,*,#111,.F.);
#139=ORIENTED_EDGE('',*,*,#110,.F.);
#140=ORIENTED_EDGE('',*,*,#112,.T.);
#141=ORIENTED_EDGE('',*,*,#113,.F.);
#142=ORIENTED_EDGE('',*,*,#114,.T.);
#143=ORIENTED_EDGE('',*,*,#115,.T.);
#144=ORIENTED_EDGE('',*,*,#114,.F.);
#145=ORIENTED_EDGE('',*,*,#116,.F.);
#146=ORIENTED_EDGE('',*,*,#117,.T.);
#147=ORIENTED_EDGE('',*,*,#113,.T.);
#148=ORIENTED_EDGE('',*,*,#117,.F.);
#149=ORIENTED_EDGE('',*,*,#118,.F.);
#150=ORIENTED_EDGE('',*,*,#119,.F.);
#151=ORIENTED_EDGE('',*,*,#120,.T.);
#152=ORIENTED_EDGE('',*,*,#121,.T.);
#153=ORIENTED_EDGE('',*,*,#122,.T.);
#154=ORIENTED_EDGE('',*,*,#120,.F.);
#155=ORIENTED_EDGE('',*,*,#118,.T.);
#156=ORIENTED_EDGE('',*,*,#119,.T.);
#157=ORIENTED_EDGE('',*,*,#123,.T.);
#158=ORIENTED_EDGE('',*,*,#124,.T.);
#159=ORIENTED_EDGE('',*,*,#123,.F.);
#160=ORIENTED_EDGE('',*,*,#125,.T.);
#161=ORIENTED_EDGE('',*,*,#126,.T.);
#162=ORIENTED_EDGE('',*,*,#121,.F.);
#163=ORIENTED_EDGE('',*,*,#122,.F.);
#164=ORIENTED_EDGE('',*,*,#126,.F.);
#165=ORIENTED_EDGE('',*,*,#116,.T.);
#166=ORIENTED_EDGE('',*,*,#124,.F.);
#167=ORIENTED_EDGE('',*,*,#125,.F.);
#168=ORIENTED_EDGE('',*,*,#111,.T.);
#169=ORIENTED_EDGE('',*,*,#115,.F.);
#170=ORIENTED_EDGE('',*,*,#107,.T.);
#171=ORIENTED_EDGE('',*,*,#109,.F.);
#172=ORIENTED_EDGE('',*,*,#127,.T.);
#173=ORIENTED_EDGE('',*,*,#127,.F.);
#174=ORIENTED_EDGE('',*,*,#112,.F.);
#175=ORIENTED_EDGE('',*,*,#106,.F.);
#176=CONICAL_SURFACE('',#206,0.0157368190948187,0.785485966263862);
#177=CONICAL_SURFACE('',#215,0.0393588663329841,0.785398163397448);
#178=CONICAL_SURFACE('',#220,0.0295163466513557,0.175068353205967);
#179=ADVANCED_FACE('',(#28),#176,.T.);
#180=ADVANCED_FACE('',(#29),#24,.T.);
#181=ADVANCED_FACE('',(#30),#25,.T.);
#182=ADVANCED_FACE('',(#31),#177,.T.);
#183=ADVANCED_FACE('',(#32),#26,.T.);
#184=ADVANCED_FACE('',(#33),#178,.T.);
#185=ADVANCED_FACE('',(#34),#27,.T.);
#186=ADVANCED_FACE('',(#35),#23,.T.);
#187=ADVANCED_FACE('',(#36,#16),#19,.T.);
#188=ADVANCED_FACE('',(#37,#17),#20,.T.);
#189=ADVANCED_FACE('',(#38,#18),#21,.T.);
#190=ADVANCED_FACE('',(#39),#15,.T.);
#191=ADVANCED_FACE('',(#40),#22,.T.);
#192=CLOSED_SHELL('',(#179,#180,#181,#182,#183,#184,#185,#186,#187,#188,
#189,#190,#191));
#193=DERIVED_UNIT_ELEMENT(#195,1.);
#194=DERIVED_UNIT_ELEMENT(#366,-3.);
#195=(
MASS_UNIT()
NAMED_UNIT(*)
SI_UNIT(.KILO.,.GRAM.)
);
#196=DERIVED_UNIT((#193,#194));
#197=MEASURE_REPRESENTATION_ITEM('density measure',
POSITIVE_RATIO_MEASURE(8490.),#196);
#198=PROPERTY_DEFINITION_REPRESENTATION(#203,#200);
#199=PROPERTY_DEFINITION_REPRESENTATION(#204,#201);
#200=REPRESENTATION('material name',(#202),#361);
#201=REPRESENTATION('density',(#197),#361);
#202=DESCRIPTIVE_REPRESENTATION_ITEM('Ottone','Ottone');
#203=PROPERTY_DEFINITION('material property','material name',#374);
#204=PROPERTY_DEFINITION('material property','density of part',#374);
#205=AXIS2_PLACEMENT_3D('',#305,#236,#237);
#206=AXIS2_PLACEMENT_3D('',#306,#238,#239);
#207=AXIS2_PLACEMENT_3D('',#308,#240,#241);
#208=AXIS2_PLACEMENT_3D('',#311,#243,#244);
#209=AXIS2_PLACEMENT_3D('',#312,#245,#246);
#210=AXIS2_PLACEMENT_3D('',#314,#247,#248);
#211=AXIS2_PLACEMENT_3D('',#316,#250,#251);
#212=AXIS2_PLACEMENT_3D('',#319,#252,#253);
#213=AXIS2_PLACEMENT_3D('',#322,#255,#256);
#214=AXIS2_PLACEMENT_3D('',#323,#257,#258);
#215=AXIS2_PLACEMENT_3D('',#324,#259,#260);
#216=AXIS2_PLACEMENT_3D('',#326,#261,#262);
#217=AXIS2_PLACEMENT_3D('',#329,#264,#265);
#218=AXIS2_PLACEMENT_3D('',#330,#266,#267);
#219=AXIS2_PLACEMENT_3D('',#332,#268,#269);
#220=AXIS2_PLACEMENT_3D('',#334,#271,#272);
#221=AXIS2_PLACEMENT_3D('',#337,#273,#274);
#222=AXIS2_PLACEMENT_3D('',#338,#275,#276);
#223=AXIS2_PLACEMENT_3D('',#342,#278,#279);
#224=AXIS2_PLACEMENT_3D('',#343,#280,#281);
#225=AXIS2_PLACEMENT_3D('',#344,#282,#283);
#226=AXIS2_PLACEMENT_3D('',#347,#285,#286);
#227=AXIS2_PLACEMENT_3D('',#348,#287,#288);
#228=AXIS2_PLACEMENT_3D('',#350,#289,#290);
#229=AXIS2_PLACEMENT_3D('',#351,#291,#292);
#230=AXIS2_PLACEMENT_3D('',#352,#293,#294);
#231=AXIS2_PLACEMENT_3D('',#353,#295,#296);
#232=AXIS2_PLACEMENT_3D('',#354,#297,#298);
#233=AXIS2_PLACEMENT_3D('',#355,#299,#300);
#234=AXIS2_PLACEMENT_3D('',#357,#301,#302);
#235=AXIS2_PLACEMENT_3D('',#358,#303,#304);
#236=DIRECTION('axis',(0.,0.,1.));
#237=DIRECTION('refdir',(1.,0.,0.));
#238=DIRECTION('center_axis',(-2.22044604925031E-16,-3.47191891474901E-14,
1.));
#239=DIRECTION('ref_axis',(-7.70920863757187E-30,1.,3.47191891474901E-14));
#240=DIRECTION('center_axis',(-2.22044604925031E-16,-1.04083408558607E-14,
1.));
#241=DIRECTION('ref_axis',(-2.31111593326465E-30,1.,1.04083408558607E-14));
#242=DIRECTION('',(7.03922507691954E-17,0.707168864463077,-0.707044692458689));
#243=DIRECTION('center_axis',(-2.22044604925031E-16,-3.47191891474901E-14,
1.));
#244=DIRECTION('ref_axis',(-7.70920863757187E-30,1.,3.47191891474901E-14));
#245=DIRECTION('center_axis',(-2.22044604925031E-16,-1.04083408558607E-14,
1.));
#246=DIRECTION('ref_axis',(-2.31111593326465E-30,1.,1.04083408558607E-14));
#247=DIRECTION('center_axis',(-2.22044604925031E-16,-1.04083408558607E-14,
1.));
#248=DIRECTION('ref_axis',(-2.31111593326465E-30,1.,1.04083408558607E-14));
#249=DIRECTION('',(2.22044604925031E-16,1.04083408558607E-14,-1.));
#250=DIRECTION('center_axis',(-2.22044604925031E-16,-1.04083408558607E-14,
1.));
#251=DIRECTION('ref_axis',(-2.31111593326465E-30,1.,1.04083408558607E-14));
#252=DIRECTION('center_axis',(2.22044604925031E-16,1.04083408558607E-14,
-1.));
#253=DIRECTION('ref_axis',(-2.31111593326465E-30,1.,1.04083408558607E-14));
#254=DIRECTION('',(2.22044604925031E-16,1.04083408558607E-14,-1.));
#255=DIRECTION('center_axis',(2.22044604925031E-16,1.04083408558607E-14,
-1.));
#256=DIRECTION('ref_axis',(-2.31111593326465E-30,1.,1.04083408558607E-14));
#257=DIRECTION('center_axis',(2.22044604925031E-16,1.04083408558607E-14,
-1.));
#258=DIRECTION('ref_axis',(-2.31111593326465E-30,1.,1.04083408558607E-14));
#259=DIRECTION('center_axis',(-2.22044604925031E-16,-1.38817412602907E-14,
1.));
#260=DIRECTION('ref_axis',(-3.08236575381275E-30,1.,1.38817412602907E-14));
#261=DIRECTION('center_axis',(-2.22044604925031E-16,-1.04083408558607E-14,
1.));
#262=DIRECTION('ref_axis',(-2.31111593326465E-30,1.,1.04083408558607E-14));
#263=DIRECTION('',(7.04136402448261E-17,0.707106781186557,-0.707106781186538));
#264=DIRECTION('center_axis',(-2.22044604925031E-16,-1.38817412602907E-14,
1.));
#265=DIRECTION('ref_axis',(-3.08236575381275E-30,1.,1.38817412602907E-14));
#266=DIRECTION('center_axis',(-2.22044604925031E-16,-1.04083408558607E-14,
1.));
#267=DIRECTION('ref_axis',(-2.31111593326465E-30,1.,1.04083408558607E-14));
#268=DIRECTION('center_axis',(-2.22044604925031E-16,-1.04083408558607E-14,
1.));
#269=DIRECTION('ref_axis',(-2.31111593326465E-30,1.,1.04083408558607E-14));
#270=DIRECTION('',(2.22044604925031E-16,1.04083408558607E-14,-1.));
#271=DIRECTION('center_axis',(2.22044604925031E-16,0.,-1.));
#272=DIRECTION('ref_axis',(-1.,0.,-2.22044604925031E-16));
#273=DIRECTION('center_axis',(2.22044604925031E-16,1.04083408558607E-14,
-1.));
#274=DIRECTION('ref_axis',(-2.31111593326465E-30,1.,1.04083408558607E-14));
#275=DIRECTION('center_axis',(2.22044604925031E-16,1.04083408558607E-14,
-1.));
#276=DIRECTION('ref_axis',(-2.31111593326465E-30,1.,1.04083408558607E-14));
#277=DIRECTION('',(-0.174175446402748,2.13303402927187E-17,0.984714635755153));
#278=DIRECTION('center_axis',(2.22044604925031E-16,1.04083408558607E-14,
-1.));
#279=DIRECTION('ref_axis',(2.31111593326465E-30,-1.,-1.04083408558607E-14));
#280=DIRECTION('center_axis',(2.22044604925031E-16,1.04083408558607E-14,
-1.));
#281=DIRECTION('ref_axis',(2.31111593326465E-30,-1.,-1.04083408558607E-14));
#282=DIRECTION('center_axis',(-2.22044604925031E-16,-1.04083408558607E-14,
1.));
#283=DIRECTION('ref_axis',(-2.31111593326465E-30,1.,1.04083408558607E-14));
#284=DIRECTION('',(2.22044604925031E-16,1.04083408558607E-14,-1.));
#285=DIRECTION('center_axis',(-2.22044604925031E-16,-1.04083408558607E-14,
1.));
#286=DIRECTION('ref_axis',(-2.31111593326465E-30,1.,1.04083408558607E-14));
#287=DIRECTION('center_axis',(-2.22044604925031E-16,0.,1.));
#288=DIRECTION('ref_axis',(1.,0.,0.));
#289=DIRECTION('center_axis',(2.22044604925031E-16,0.,-1.));
#290=DIRECTION('ref_axis',(6.57608479025257E-17,1.,1.46018414920514E-32));
#291=DIRECTION('center_axis',(1.22464679914735E-16,-1.,2.71926214689378E-32));
#292=DIRECTION('ref_axis',(-1.,-1.22464679914735E-16,-3.7884114840028E-16));
#293=DIRECTION('center_axis',(-2.22044604925031E-16,-1.04083408558607E-14,
1.));
#294=DIRECTION('ref_axis',(-2.31111593326465E-30,1.,1.04083408558607E-14));
#295=DIRECTION('center_axis',(-2.22044604925031E-16,-1.04083408558607E-14,
1.));
#296=DIRECTION('ref_axis',(-2.31111593326465E-30,1.,1.04083408558607E-14));
#297=DIRECTION('center_axis',(2.22044604925031E-16,1.04083408558607E-14,
-1.));
#298=DIRECTION('ref_axis',(2.31111593326465E-30,-1.,-1.04083408558607E-14));
#299=DIRECTION('center_axis',(6.20335906531171E-13,2.32588622477599E-14,
-1.));
#300=DIRECTION('ref_axis',(-1.,0.,-6.20707706214382E-13));
#301=DIRECTION('center_axis',(-1.22464679900311E-16,-1.,-2.325886224776E-14));
#302=DIRECTION('ref_axis',(1.,-1.22464679914737E-16,6.20236326606161E-13));
#303=DIRECTION('center_axis',(2.22044604925031E-16,1.04083408558607E-14,
-1.));
#304=DIRECTION('ref_axis',(2.31111593326465E-30,-1.,-1.04083408558607E-14));
#305=CARTESIAN_POINT('',(0.,0.,0.));
#306=CARTESIAN_POINT('Origin',(1.09273919746571E-17,6.99353086378051E-16,
-0.0354330708663396));
#307=CARTESIAN_POINT('',(1.09273919746571E-17,-0.0157368190941699,-0.0354330708669881));
#308=CARTESIAN_POINT('Origin',(1.09273919746571E-17,6.99353086378051E-16,
-0.0354330708661437));
#309=CARTESIAN_POINT('',(1.09273919746571E-17,-0.0117991197999272,-0.0393700787393673));
#310=CARTESIAN_POINT('',(1.28545964879802E-17,-0.015736819094818,-0.0354330708663402));
#311=CARTESIAN_POINT('Origin',(1.09273919746571E-17,6.99353086378051E-16,
-0.039370078739367));
#312=CARTESIAN_POINT('Origin',(-2.18547839493141E-17,-6.99353086378051E-16,
0.118110236220472));
#313=CARTESIAN_POINT('',(0.,-0.015736819093326,-1.52983487645199E-16));
#314=CARTESIAN_POINT('Origin',(0.,0.,0.));
#315=CARTESIAN_POINT('',(-1.99275794361737E-17,-0.0157368190933272,0.118110236220472));
#316=CARTESIAN_POINT('Origin',(-2.18547839493141E-17,-6.99353086378051E-16,
0.118110236220472));
#317=CARTESIAN_POINT('',(0.0176181102362261,2.79525474928158E-15,0.100492125984254));
#318=CARTESIAN_POINT('',(-1.57851813916054E-17,-0.0176181102362266,0.100492125984253));
#319=CARTESIAN_POINT('Origin',(-2.18547839493141E-17,-6.99353086378051E-16,
0.100492125984254));
#320=CARTESIAN_POINT('',(-1.09273919746571E-17,-0.0176181102362264,0.0787652970583489));
#321=CARTESIAN_POINT('',(-1.96971877185321E-17,-0.0176181102362268,0.118110236220471));
#322=CARTESIAN_POINT('Origin',(-2.18547839493141E-17,-6.99353086378051E-16,
0.0787652970583491));
#323=CARTESIAN_POINT('Origin',(-2.18547839493141E-17,-6.99353086378051E-16,
0.100492125984254));
#324=CARTESIAN_POINT('Origin',(0.,0.,0.00393700787064828));
#325=CARTESIAN_POINT('',(0.,-0.0393588663368886,0.00393700787455229));
#326=CARTESIAN_POINT('Origin',(0.,0.,0.00393700787401636));
#327=CARTESIAN_POINT('',(0.,-0.0354218584644324,2.0961415018426E-12));
#328=CARTESIAN_POINT('',(4.82007096727587E-18,-0.0393588663329841,0.00393700787064773));
#329=CARTESIAN_POINT('Origin',(0.,0.,2.0966605529614E-12));
#330=CARTESIAN_POINT('Origin',(-2.18547839493141E-17,-6.99353086378051E-16,
0.118110236220472));
#331=CARTESIAN_POINT('',(0.,-0.0393588663374247,0.0196850393700773));
#332=CARTESIAN_POINT('Origin',(0.,0.,0.0196850393700777));
#333=CARTESIAN_POINT('',(-1.70347129814944E-17,-0.0393588663374257,0.118110236220471));
#334=CARTESIAN_POINT('Origin',(-1.09273919746571E-17,-6.99353086378051E-16,
0.0677825820935877));
#335=CARTESIAN_POINT('',(-1.09273919746571E-17,-0.0295163466523858,0.0677825820877352));
#336=CARTESIAN_POINT('',(0.0295163466523907,-7.02967796323088E-16,0.0677825820877361));
#337=CARTESIAN_POINT('Origin',(-1.09273919746571E-17,-6.99353086378051E-16,
0.0677825820877355));
#338=CARTESIAN_POINT('Origin',(-1.09273919746571E-17,-6.99353086378051E-16,
0.0677825820877355));
#339=CARTESIAN_POINT('',(0.0287246344015773,-7.02870839535708E-16,0.0722585897959633));
#340=CARTESIAN_POINT('',(0.0295163466513557,-7.02967796322962E-16,0.0677825820935877));
#341=CARTESIAN_POINT('',(-0.0287246344016284,-6.99353086378051E-16,0.0722585897959512));
#342=CARTESIAN_POINT('Origin',(-1.09273919746571E-17,-6.99353086378051E-16,
0.0722585897959513));
#343=CARTESIAN_POINT('Origin',(-1.09273919746571E-17,-6.99353086378051E-16,
0.0722585897959513));
#344=CARTESIAN_POINT('Origin',(-2.18547839493141E-17,-6.99353086378051E-16,
0.118110236220472));
#345=CARTESIAN_POINT('',(0.,-0.0295163466523853,0.0196850393700774));
#346=CARTESIAN_POINT('',(-1.82400740042773E-17,-0.0295163466523863,0.118110236220471));
#347=CARTESIAN_POINT('Origin',(0.,0.,0.0196850393700777));
#348=CARTESIAN_POINT('Origin',(-1.09273919746571E-17,-6.99353086378051E-16,
0.0708912813103177));
#349=CARTESIAN_POINT('',(-0.0209702426457548,-7.01921200431398E-16,0.0787652970583491));
#350=CARTESIAN_POINT('Origin',(-2.18547839493141E-17,-6.99353086378051E-16,
0.0787652970583491));
#351=CARTESIAN_POINT('Origin',(-0.0209702426457587,-7.01921200431398E-16,
0.0708912813103176));
#352=CARTESIAN_POINT('Origin',(0.,0.0295163466523863,0.0196850393700777));
#353=CARTESIAN_POINT('Origin',(-2.18547839493141E-17,0.0176181102362245,
0.0787652970583491));
#354=CARTESIAN_POINT('Origin',(0.,0.0157368190933269,0.));
#355=CARTESIAN_POINT('Origin',(-2.18547839493141E-17,2.79741234551221E-15,
0.10049212598425));
#356=CARTESIAN_POINT('',(-1.0948167960491E-14,2.38763514646206E-15,0.118110236220472));
#357=CARTESIAN_POINT('Origin',(-2.18547839493141E-17,2.79741234551221E-15,
0.10049212598425));
#358=CARTESIAN_POINT('Origin',(1.09273919746571E-17,0.0117991197980519,
-0.0393700787401608));
#359=UNCERTAINTY_MEASURE_WITH_UNIT(LENGTH_MEASURE(0.000393700787401575),
#364,'DISTANCE_ACCURACY_VALUE',
'Maximum model space distance between geometric entities at asserted c
onnectivities');
#360=UNCERTAINTY_MEASURE_WITH_UNIT(LENGTH_MEASURE(0.000393700787401575),
#364,'DISTANCE_ACCURACY_VALUE',
'Maximum model space distance between geometric entities at asserted c
onnectivities');
#361=(
GEOMETRIC_REPRESENTATION_CONTEXT(3)
GLOBAL_UNCERTAINTY_ASSIGNED_CONTEXT((#359))
GLOBAL_UNIT_ASSIGNED_CONTEXT((#364,#368,#369))
REPRESENTATION_CONTEXT('','3D')
);
#362=(
GEOMETRIC_REPRESENTATION_CONTEXT(3)
GLOBAL_UNCERTAINTY_ASSIGNED_CONTEXT((#360))
GLOBAL_UNIT_ASSIGNED_CONTEXT((#364,#368,#369))
REPRESENTATION_CONTEXT('','3D')
);
#363=DIMENSIONAL_EXPONENTS(1.,0.,0.,0.,0.,0.,0.);
#364=(
CONVERSION_BASED_UNIT('inch',#367)
LENGTH_UNIT()
NAMED_UNIT(#363)
);
#365=(
LENGTH_UNIT()
NAMED_UNIT(*)
SI_UNIT(.MILLI.,.METRE.)
);
#366=(
LENGTH_UNIT()
NAMED_UNIT(*)
SI_UNIT($,.METRE.)
);
#367=LENGTH_MEASURE_WITH_UNIT(LENGTH_MEASURE(25.4),#365);
#368=(
NAMED_UNIT(*)
PLANE_ANGLE_UNIT()
SI_UNIT($,.RADIAN.)
);
#369=(
NAMED_UNIT(*)
SI_UNIT($,.STERADIAN.)
SOLID_ANGLE_UNIT()
);
#370=SHAPE_DEFINITION_REPRESENTATION(#371,#372);
#371=PRODUCT_DEFINITION_SHAPE('',$,#374);
#372=SHAPE_REPRESENTATION('',(#205),#361);
#373=PRODUCT_DEFINITION_CONTEXT('part definition',#378,'design');
#374=PRODUCT_DEFINITION('Same_Sky_CPG-42-TH-TR',
'Same_Sky_CPG-42-TH-TR v1 v1',#375,#373);
#375=PRODUCT_DEFINITION_FORMATION('',$,#380);
#376=PRODUCT_RELATED_PRODUCT_CATEGORY('Same_Sky_CPG-42-TH-TR v1 v1',
'Same_Sky_CPG-42-TH-TR v1 v1',(#380));
#377=APPLICATION_PROTOCOL_DEFINITION('international standard',
'automotive_design',2009,#378);
#378=APPLICATION_CONTEXT(
'Core Data for Automotive Mechanical Design Process');
#379=PRODUCT_CONTEXT('part definition',#378,'mechanical');
#380=PRODUCT('Same_Sky_CPG-42-TH-TR','Same_Sky_CPG-42-TH-TR v1 v1',
'STEP AP214',(#379));
#381=PRESENTATION_STYLE_ASSIGNMENT((#383));
#382=PRESENTATION_STYLE_ASSIGNMENT((#384));
#383=SURFACE_STYLE_USAGE(.BOTH.,#385);
#384=SURFACE_STYLE_USAGE(.BOTH.,#386);
#385=SURFACE_SIDE_STYLE('',(#387));
#386=SURFACE_SIDE_STYLE('',(#388));
#387=SURFACE_STYLE_FILL_AREA(#389);
#388=SURFACE_STYLE_FILL_AREA(#390);
#389=FILL_AREA_STYLE('Ottone - Lucidato',(#391));
#390=FILL_AREA_STYLE('Ottone - Lucidato',(#392));
#391=FILL_AREA_STYLE_COLOUR('Ottone - Lucidato',#393);
#392=FILL_AREA_STYLE_COLOUR('Ottone - Lucidato',#394);
#393=COLOUR_RGB('Ottone - Lucidato',0.952941176470588,0.796078431372549,
0.486274509803922);
#394=COLOUR_RGB('Ottone - Lucidato',0.952941176470588,0.796078431372549,
0.486274509803922);
ENDSEC;
END-ISO-10303-21;
