ISO-10303-21;
HEADER;
/* Generated by software containing ST-Developer
 * from STEP Tools, Inc. (www.steptools.com) 
 */

FILE_DESCRIPTION(
/* description */ ('STEP AP214'),
/* implementation_level */ '2;1');

FILE_NAME(
/* name */ 'Same_Sky_CPG-37-TH-TR.step',
/* time_stamp */ '2025-04-24T21:18:50+02:00',
/* author */ (''),
/* organization */ (''),
/* preprocessor_version */ 'ST-DEVELOPER v20.1',
/* originating_system */ 'Autodesk Translation Framework v14.4.0.0',
/* authorisation */ '');

FILE_SCHEMA (('AUTOMOTIVE_DESIGN { 1 0 10303 214 3 1 1 }'));
ENDSEC;

DATA;
#10=MECHANICAL_DESIGN_GEOMETRIC_PRESENTATION_REPRESENTATION('',(#13),#312);
#11=SHAPE_REPRESENTATION_RELATIONSHIP('SRR','None',#322,#12);
#12=ADVANCED_BREP_SHAPE_REPRESENTATION('',(#14),#311);
#13=STYLED_ITEM('',(#332),#14);
#14=MANIFOLD_SOLID_BREP('Corpo1',#164);
#15=FACE_BOUND('',#44,.T.);
#16=FACE_BOUND('',#47,.T.);
#17=FACE_BOUND('',#49,.T.);
#18=PLANE('',#200);
#19=PLANE('',#201);
#20=PLANE('',#202);
#21=PLANE('',#203);
#22=TOROIDAL_SURFACE('',#197,0.0187401574803184,0.00590551181102379);
#23=SPHERICAL_SURFACE('',#195,0.0157480314960643);
#24=CONICAL_SURFACE('',#189,0.0295275590549695,0.785398163397448);
#25=FACE_OUTER_BOUND('',#36,.T.);
#26=FACE_OUTER_BOUND('',#37,.T.);
#27=FACE_OUTER_BOUND('',#38,.T.);
#28=FACE_OUTER_BOUND('',#39,.T.);
#29=FACE_OUTER_BOUND('',#40,.T.);
#30=FACE_OUTER_BOUND('',#41,.T.);
#31=FACE_OUTER_BOUND('',#42,.T.);
#32=FACE_OUTER_BOUND('',#43,.T.);
#33=FACE_OUTER_BOUND('',#45,.T.);
#34=FACE_OUTER_BOUND('',#46,.T.);
#35=FACE_OUTER_BOUND('',#48,.T.);
#36=EDGE_LOOP('',(#109,#110,#111,#112,#113));
#37=EDGE_LOOP('',(#114,#115,#116,#117,#118));
#38=EDGE_LOOP('',(#119,#120,#121,#122));
#39=EDGE_LOOP('',(#123,#124,#125,#126,#127));
#40=EDGE_LOOP('',(#128,#129,#130,#131,#132));
#41=EDGE_LOOP('',(#133,#134,#135,#136));
#42=EDGE_LOOP('',(#137,#138,#139,#140,#141));
#43=EDGE_LOOP('',(#142));
#44=EDGE_LOOP('',(#143));
#45=EDGE_LOOP('',(#144));
#46=EDGE_LOOP('',(#145));
#47=EDGE_LOOP('',(#146));
#48=EDGE_LOOP('',(#147));
#49=EDGE_LOOP('',(#148));
#50=LINE('',#268,#55);
#51=LINE('',#276,#56);
#52=LINE('',#284,#57);
#53=LINE('',#291,#58);
#54=LINE('',#296,#59);
#55=VECTOR('',#210,0.0157480314960645);
#56=VECTOR('',#219,0.0246456692913414);
#57=VECTOR('',#228,0.0393700787401586);
#58=VECTOR('',#235,0.0295275590549695);
#59=VECTOR('',#242,0.0295275590551225);
#60=CIRCLE('',#179,0.0157480314960645);
#61=CIRCLE('',#180,0.0157480314960645);
#62=CIRCLE('',#181,0.0157480314960645);
#63=CIRCLE('',#183,0.0246456692913414);
#64=CIRCLE('',#184,0.0246456692913414);
#65=CIRCLE('',#185,0.0246456692913414);
#66=CIRCLE('',#187,0.0393700787401586);
#67=CIRCLE('',#188,0.0393700787401586);
#68=CIRCLE('',#190,0.0295275590551225);
#69=CIRCLE('',#191,0.0275590551223814);
#70=CIRCLE('',#192,0.0295275590551225);
#71=CIRCLE('',#194,0.0295275590551225);
#72=CIRCLE('',#196,0.0157480314960643);
#73=CIRCLE('',#198,0.00590551181102379);
#74=CIRCLE('',#199,0.0187401574803179);
#75=VERTEX_POINT('',#265);
#76=VERTEX_POINT('',#267);
#77=VERTEX_POINT('',#269);
#78=VERTEX_POINT('',#273);
#79=VERTEX_POINT('',#275);
#80=VERTEX_POINT('',#277);
#81=VERTEX_POINT('',#281);
#82=VERTEX_POINT('',#283);
#83=VERTEX_POINT('',#287);
#84=VERTEX_POINT('',#288);
#85=VERTEX_POINT('',#290);
#86=VERTEX_POINT('',#295);
#87=VERTEX_POINT('',#299);
#88=VERTEX_POINT('',#302);
#89=EDGE_CURVE('',#75,#75,#60,.T.);
#90=EDGE_CURVE('',#75,#76,#50,.T.);
#91=EDGE_CURVE('',#76,#77,#61,.T.);
#92=EDGE_CURVE('',#77,#76,#62,.T.);
#93=EDGE_CURVE('',#78,#78,#63,.T.);
#94=EDGE_CURVE('',#78,#79,#51,.T.);
#95=EDGE_CURVE('',#79,#80,#64,.T.);
#96=EDGE_CURVE('',#80,#79,#65,.T.);
#97=EDGE_CURVE('',#81,#81,#66,.T.);
#98=EDGE_CURVE('',#81,#82,#52,.T.);
#99=EDGE_CURVE('',#82,#82,#67,.T.);
#100=EDGE_CURVE('',#83,#84,#68,.T.);
#101=EDGE_CURVE('',#83,#85,#53,.T.);
#102=EDGE_CURVE('',#85,#85,#69,.T.);
#103=EDGE_CURVE('',#84,#83,#70,.T.);
#104=EDGE_CURVE('',#84,#86,#54,.T.);
#105=EDGE_CURVE('',#86,#86,#71,.T.);
#106=EDGE_CURVE('',#87,#77,#72,.T.);
#107=EDGE_CURVE('',#80,#88,#73,.T.);
#108=EDGE_CURVE('',#88,#88,#74,.T.);
#109=ORIENTED_EDGE('',*,*,#89,.T.);
#110=ORIENTED_EDGE('',*,*,#90,.T.);
#111=ORIENTED_EDGE('',*,*,#91,.T.);
#112=ORIENTED_EDGE('',*,*,#92,.T.);
#113=ORIENTED_EDGE('',*,*,#90,.F.);
#114=ORIENTED_EDGE('',*,*,#93,.T.);
#115=ORIENTED_EDGE('',*,*,#94,.T.);
#116=ORIENTED_EDGE('',*,*,#95,.T.);
#117=ORIENTED_EDGE('',*,*,#96,.T.);
#118=ORIENTED_EDGE('',*,*,#94,.F.);
#119=ORIENTED_EDGE('',*,*,#97,.T.);
#120=ORIENTED_EDGE('',*,*,#98,.T.);
#121=ORIENTED_EDGE('',*,*,#99,.T.);
#122=ORIENTED_EDGE('',*,*,#98,.F.);
#123=ORIENTED_EDGE('',*,*,#100,.F.);
#124=ORIENTED_EDGE('',*,*,#101,.T.);
#125=ORIENTED_EDGE('',*,*,#102,.T.);
#126=ORIENTED_EDGE('',*,*,#101,.F.);
#127=ORIENTED_EDGE('',*,*,#103,.F.);
#128=ORIENTED_EDGE('',*,*,#100,.T.);
#129=ORIENTED_EDGE('',*,*,#104,.T.);
#130=ORIENTED_EDGE('',*,*,#105,.T.);
#131=ORIENTED_EDGE('',*,*,#104,.F.);
#132=ORIENTED_EDGE('',*,*,#103,.T.);
#133=ORIENTED_EDGE('',*,*,#92,.F.);
#134=ORIENTED_EDGE('',*,*,#106,.F.);
#135=ORIENTED_EDGE('',*,*,#106,.T.);
#136=ORIENTED_EDGE('',*,*,#91,.F.);
#137=ORIENTED_EDGE('',*,*,#96,.F.);
#138=ORIENTED_EDGE('',*,*,#107,.T.);
#139=ORIENTED_EDGE('',*,*,#108,.T.);
#140=ORIENTED_EDGE('',*,*,#107,.F.);
#141=ORIENTED_EDGE('',*,*,#95,.F.);
#142=ORIENTED_EDGE('',*,*,#97,.F.);
#143=ORIENTED_EDGE('',*,*,#105,.F.);
#144=ORIENTED_EDGE('',*,*,#102,.F.);
#145=ORIENTED_EDGE('',*,*,#99,.F.);
#146=ORIENTED_EDGE('',*,*,#93,.F.);
#147=ORIENTED_EDGE('',*,*,#108,.F.);
#148=ORIENTED_EDGE('',*,*,#89,.F.);
#149=CYLINDRICAL_SURFACE('',#178,0.0157480314960645);
#150=CYLINDRICAL_SURFACE('',#182,0.0246456692913414);
#151=CYLINDRICAL_SURFACE('',#186,0.0393700787401586);
#152=CYLINDRICAL_SURFACE('',#193,0.0295275590551225);
#153=ADVANCED_FACE('',(#25),#149,.T.);
#154=ADVANCED_FACE('',(#26),#150,.T.);
#155=ADVANCED_FACE('',(#27),#151,.T.);
#156=ADVANCED_FACE('',(#28),#24,.T.);
#157=ADVANCED_FACE('',(#29),#152,.T.);
#158=ADVANCED_FACE('',(#30),#23,.T.);
#159=ADVANCED_FACE('',(#31),#22,.T.);
#160=ADVANCED_FACE('',(#32,#15),#18,.F.);
#161=ADVANCED_FACE('',(#33),#19,.F.);
#162=ADVANCED_FACE('',(#34,#16),#20,.F.);
#163=ADVANCED_FACE('',(#35,#17),#21,.F.);
#164=CLOSED_SHELL('',(#153,#154,#155,#156,#157,#158,#159,#160,#161,#162,
#163));
#165=DERIVED_UNIT_ELEMENT(#167,1.);
#166=DERIVED_UNIT_ELEMENT(#316,-3.);
#167=(
MASS_UNIT()
NAMED_UNIT(*)
SI_UNIT(.KILO.,.GRAM.)
);
#168=DERIVED_UNIT((#165,#166));
#169=MEASURE_REPRESENTATION_ITEM('density measure',
POSITIVE_RATIO_MEASURE(7850.),#168);
#170=PROPERTY_DEFINITION_REPRESENTATION(#175,#172);
#171=PROPERTY_DEFINITION_REPRESENTATION(#176,#173);
#172=REPRESENTATION('material name',(#174),#311);
#173=REPRESENTATION('density',(#169),#311);
#174=DESCRIPTIVE_REPRESENTATION_ITEM('Acciaio','Acciaio');
#175=PROPERTY_DEFINITION('material property','material name',#324);
#176=PROPERTY_DEFINITION('material property','density of part',#324);
#177=AXIS2_PLACEMENT_3D('',#263,#204,#205);
#178=AXIS2_PLACEMENT_3D('',#264,#206,#207);
#179=AXIS2_PLACEMENT_3D('',#266,#208,#209);
#180=AXIS2_PLACEMENT_3D('',#270,#211,#212);
#181=AXIS2_PLACEMENT_3D('',#271,#213,#214);
#182=AXIS2_PLACEMENT_3D('',#272,#215,#216);
#183=AXIS2_PLACEMENT_3D('',#274,#217,#218);
#184=AXIS2_PLACEMENT_3D('',#278,#220,#221);
#185=AXIS2_PLACEMENT_3D('',#279,#222,#223);
#186=AXIS2_PLACEMENT_3D('',#280,#224,#225);
#187=AXIS2_PLACEMENT_3D('',#282,#226,#227);
#188=AXIS2_PLACEMENT_3D('',#285,#229,#230);
#189=AXIS2_PLACEMENT_3D('',#286,#231,#232);
#190=AXIS2_PLACEMENT_3D('',#289,#233,#234);
#191=AXIS2_PLACEMENT_3D('',#292,#236,#237);
#192=AXIS2_PLACEMENT_3D('',#293,#238,#239);
#193=AXIS2_PLACEMENT_3D('',#294,#240,#241);
#194=AXIS2_PLACEMENT_3D('',#297,#243,#244);
#195=AXIS2_PLACEMENT_3D('',#298,#245,#246);
#196=AXIS2_PLACEMENT_3D('',#300,#247,#248);
#197=AXIS2_PLACEMENT_3D('',#301,#249,#250);
#198=AXIS2_PLACEMENT_3D('',#303,#251,#252);
#199=AXIS2_PLACEMENT_3D('',#304,#253,#254);
#200=AXIS2_PLACEMENT_3D('',#305,#255,#256);
#201=AXIS2_PLACEMENT_3D('',#306,#257,#258);
#202=AXIS2_PLACEMENT_3D('',#307,#259,#260);
#203=AXIS2_PLACEMENT_3D('',#308,#261,#262);
#204=DIRECTION('axis',(0.,0.,1.));
#205=DIRECTION('refdir',(1.,0.,0.));
#206=DIRECTION('center_axis',(2.22044604925031E-16,-2.52323414687525E-14,
-1.));
#207=DIRECTION('ref_axis',(-5.60270529276264E-30,-1.,2.52323414687525E-14));
#208=DIRECTION('center_axis',(-2.22044604925031E-16,2.52323414687525E-14,
1.));
#209=DIRECTION('ref_axis',(-5.60270529276264E-30,-1.,2.52323414687525E-14));
#210=DIRECTION('',(-2.22044604925031E-16,2.52323414687525E-14,1.));
#211=DIRECTION('center_axis',(2.22044604925031E-16,-2.52323414687525E-14,
-1.));
#212=DIRECTION('ref_axis',(-5.60270529276264E-30,-1.,2.52323414687525E-14));
#213=DIRECTION('center_axis',(2.22044604925031E-16,-2.52323414687525E-14,
-1.));
#214=DIRECTION('ref_axis',(-5.60270529276264E-30,-1.,2.52323414687525E-14));
#215=DIRECTION('center_axis',(2.22044604925031E-16,-2.52323414687525E-14,
-1.));
#216=DIRECTION('ref_axis',(-5.60270529276264E-30,-1.,2.52323414687525E-14));
#217=DIRECTION('center_axis',(-2.22044604925031E-16,2.52323414687525E-14,
1.));
#218=DIRECTION('ref_axis',(-5.60270529276264E-30,-1.,2.52323414687525E-14));
#219=DIRECTION('',(-2.22044604925031E-16,2.52323414687525E-14,1.));
#220=DIRECTION('center_axis',(2.22044604925031E-16,-2.52323414687525E-14,
-1.));
#221=DIRECTION('ref_axis',(-5.60270529276264E-30,-1.,2.52323414687525E-14));
#222=DIRECTION('center_axis',(2.22044604925031E-16,-2.52323414687525E-14,
-1.));
#223=DIRECTION('ref_axis',(-5.60270529276264E-30,-1.,2.52323414687525E-14));
#224=DIRECTION('center_axis',(2.22044604925031E-16,-2.52323414687525E-14,
-1.));
#225=DIRECTION('ref_axis',(-5.60270529276264E-30,-1.,2.52323414687525E-14));
#226=DIRECTION('center_axis',(-2.22044604925031E-16,2.52323414687525E-14,
1.));
#227=DIRECTION('ref_axis',(-5.60270529276264E-30,-1.,2.52323414687525E-14));
#228=DIRECTION('',(-2.22044604925031E-16,2.52323414687525E-14,1.));
#229=DIRECTION('center_axis',(2.22044604925031E-16,-2.52323414687525E-14,
-1.));
#230=DIRECTION('ref_axis',(-5.60270529276264E-30,-1.,2.52323414687525E-14));
#231=DIRECTION('center_axis',(-2.22044604925031E-16,0.,1.));
#232=DIRECTION('ref_axis',(1.,0.,2.22044604925031E-16));
#233=DIRECTION('center_axis',(-2.22044604925031E-16,2.52323414687525E-14,
1.));
#234=DIRECTION('ref_axis',(-5.60270529276264E-30,-1.,2.52323414687525E-14));
#235=DIRECTION('',(0.707106781186548,8.65956056235493E-17,-0.707106781186547));
#236=DIRECTION('center_axis',(-2.22044604925031E-16,0.,1.));
#237=DIRECTION('ref_axis',(1.,0.,2.22044604925031E-16));
#238=DIRECTION('center_axis',(-2.22044604925031E-16,2.52323414687525E-14,
1.));
#239=DIRECTION('ref_axis',(-5.60270529276264E-30,-1.,2.52323414687525E-14));
#240=DIRECTION('center_axis',(2.22044604925031E-16,-2.52323414687525E-14,
-1.));
#241=DIRECTION('ref_axis',(-5.60270529276264E-30,-1.,2.52323414687525E-14));
#242=DIRECTION('',(-2.22044604925031E-16,2.52323414687525E-14,1.));
#243=DIRECTION('center_axis',(2.22044604925031E-16,-2.52323414687525E-14,
-1.));
#244=DIRECTION('ref_axis',(-5.60270529276264E-30,-1.,2.52323414687525E-14));
#245=DIRECTION('center_axis',(-0.577350269189626,0.577350269189626,0.577350269189626));
#246=DIRECTION('ref_axis',(-0.707106781186548,0.,-0.707106781186548));
#247=DIRECTION('center_axis',(0.408248290463863,0.816496580927726,-0.408248290463863));
#248=DIRECTION('ref_axis',(0.707106781186547,9.99919912691783E-17,0.707106781186548));
#249=DIRECTION('center_axis',(2.22044604925031E-16,0.,-1.));
#250=DIRECTION('ref_axis',(-1.,0.,-2.81546174375747E-16));
#251=DIRECTION('center_axis',(-1.22464679914742E-16,-1.,-2.71926214689392E-32));
#252=DIRECTION('ref_axis',(1.,-1.22464679914742E-16,2.21689901083265E-16));
#253=DIRECTION('center_axis',(2.93770610078929E-14,3.32037102131763E-30,
-1.));
#254=DIRECTION('ref_axis',(-6.50915210471193E-17,1.,1.40817343641987E-30));
#255=DIRECTION('center_axis',(-2.22044604925031E-16,2.52323414687525E-14,
1.));
#256=DIRECTION('ref_axis',(5.60270529276264E-30,1.,-2.52323414687525E-14));
#257=DIRECTION('center_axis',(-2.22044604925031E-16,2.52323414687525E-14,
1.));
#258=DIRECTION('ref_axis',(5.60270529276264E-30,1.,-2.52323414687525E-14));
#259=DIRECTION('center_axis',(2.22044604925031E-16,-2.52323414687525E-14,
-1.));
#260=DIRECTION('ref_axis',(-5.60270529276264E-30,-1.,2.52323414687525E-14));
#261=DIRECTION('center_axis',(2.22044604925031E-16,-2.52323414687525E-14,
-1.));
#262=DIRECTION('ref_axis',(-5.60270529276264E-30,-1.,2.52323414687525E-14));
#263=CARTESIAN_POINT('',(0.,0.,0.));
#264=CARTESIAN_POINT('Origin',(9.61610493769909E-18,-6.99353086378051E-16,
-0.0433070866141772));
#265=CARTESIAN_POINT('',(-7.68752730124535E-18,0.015748031496066,0.0433070866141726));
#266=CARTESIAN_POINT('Origin',(-9.61610493769816E-18,6.99353086378051E-16,
0.043307086614173));
#267=CARTESIAN_POINT('',(-1.38083833506908E-17,0.0157480314960667,0.0708729716376437));
#268=CARTESIAN_POINT('',(1.15446825741519E-17,0.0157480314960638,-0.0433070866141776));
#269=CARTESIAN_POINT('',(0.0140868338831297,-0.00704000050782098,0.0708729716376443));
#270=CARTESIAN_POINT('Origin',(-1.57369609871436E-17,2.09805925913415E-15,
0.0708729716376441));
#271=CARTESIAN_POINT('Origin',(-1.57369609871436E-17,2.09805925913415E-15,
0.0708729716376441));
#272=CARTESIAN_POINT('Origin',(9.61610493769909E-18,-6.99353086378051E-16,
-0.0433070866141772));
#273=CARTESIAN_POINT('',(1.26984128510328E-18,0.024645669291342,0.00787401574803209));
#274=CARTESIAN_POINT('Origin',(-1.7483827159454E-18,0.,0.00787401574803273));
#275=CARTESIAN_POINT('',(-5.28659389969135E-18,0.0246456692913427,0.037401574803152));
#276=CARTESIAN_POINT('',(1.26343289387478E-17,0.0246456692913407,-0.0433070866141778));
#277=CARTESIAN_POINT('',(0.0246456692913414,2.0950410351331E-15,0.0374015748031527));
#278=CARTESIAN_POINT('Origin',(-8.30481790074004E-18,6.99353086378051E-16,
0.0374015748031527));
#279=CARTESIAN_POINT('Origin',(-8.30481790074004E-18,6.99353086378051E-16,
0.0374015748031527));
#280=CARTESIAN_POINT('Origin',(9.61610493769909E-18,-6.99353086378051E-16,
-0.0433070866141772));
#281=CARTESIAN_POINT('',(4.82144409113167E-18,0.039370078740159,-9.9985636568112E-16));
#282=CARTESIAN_POINT('Origin',(0.,0.,0.));
#283=CARTESIAN_POINT('',(3.07306137518643E-18,0.0393700787401592,0.00787401574803103));
#284=CARTESIAN_POINT('',(1.44375490288308E-17,0.0393700787401579,-0.0433070866141782));
#285=CARTESIAN_POINT('Origin',(-1.74838271594525E-18,0.,0.00787401574803203));
#286=CARTESIAN_POINT('Origin',(9.17900925826209E-18,-6.99353086378051E-16,
-0.0413385826751395));
#287=CARTESIAN_POINT('',(-0.029527559054033,-7.02969169446267E-16,-0.041338582676076));
#288=CARTESIAN_POINT('',(1.27950923270613E-17,0.0295275590551219,-0.041338582677167));
#289=CARTESIAN_POINT('Origin',(9.17900925871212E-18,-6.99353086378051E-16,
-0.0413385826771662));
#290=CARTESIAN_POINT('',(-0.0275590551223813,-7.02728097242366E-16,-0.0433070866077277));
#291=CARTESIAN_POINT('',(-0.0295275590549695,-7.02969169446382E-16,-0.0413385826751395));
#292=CARTESIAN_POINT('Origin',(9.61610493626703E-18,-6.99353086378051E-16,
-0.0433070866077278));
#293=CARTESIAN_POINT('Origin',(9.17900925871212E-18,-6.99353086378051E-16,
-0.0413385826771662));
#294=CARTESIAN_POINT('Origin',(9.61610493769909E-18,-6.99353086378051E-16,
-0.0433070866141772));
#295=CARTESIAN_POINT('',(3.61608306834919E-18,0.0295275590551229,-7.4306265427668E-16));
#296=CARTESIAN_POINT('',(1.32321880060483E-17,0.0295275590551218,-0.0433070866141779));
#297=CARTESIAN_POINT('Origin',(0.,0.,0.));
#298=CARTESIAN_POINT('Origin',(-1.57354444435061E-17,1.48106339091415E-9,
0.0708661417322834));
#299=CARTESIAN_POINT('',(-0.00909213022345942,0.0090921317045228,0.0799582719557427));
#300=CARTESIAN_POINT('Origin',(-1.57354444435061E-17,1.48106339091415E-9,
0.0708661417322834));
#301=CARTESIAN_POINT('Origin',(-6.79570590021471E-18,2.09805925913415E-15,
0.0374015748031485));
#302=CARTESIAN_POINT('',(0.0187401574803178,2.09576425174677E-15,0.0433070866141736));
#303=CARTESIAN_POINT('Origin',(0.0187401574803184,2.09576425174677E-15,
0.0374015748031485));
#304=CARTESIAN_POINT('Origin',(-1.08359302927545E-17,6.99353086378051E-16,
0.043307086614173));
#305=CARTESIAN_POINT('Origin',(3.10575159535831E-31,0.029527559055122,-1.3987061727561E-15));
#306=CARTESIAN_POINT('Origin',(9.61610493769909E-18,-6.99353086378051E-16,
-0.0433070866141772));
#307=CARTESIAN_POINT('Origin',(-1.74838271594525E-18,0.0246456692913392,
0.00787401574803203));
#308=CARTESIAN_POINT('Origin',(-9.61610493769816E-18,0.0157480314960648,
0.043307086614173));
#309=UNCERTAINTY_MEASURE_WITH_UNIT(LENGTH_MEASURE(0.000393700787401575),
#314,'DISTANCE_ACCURACY_VALUE',
'Maximum model space distance between geometric entities at asserted c
onnectivities');
#310=UNCERTAINTY_MEASURE_WITH_UNIT(LENGTH_MEASURE(0.000393700787401575),
#314,'DISTANCE_ACCURACY_VALUE',
'Maximum model space distance between geometric entities at asserted c
onnectivities');
#311=(
GEOMETRIC_REPRESENTATION_CONTEXT(3)
GLOBAL_UNCERTAINTY_ASSIGNED_CONTEXT((#309))
GLOBAL_UNIT_ASSIGNED_CONTEXT((#314,#318,#319))
REPRESENTATION_CONTEXT('','3D')
);
#312=(
GEOMETRIC_REPRESENTATION_CONTEXT(3)
GLOBAL_UNCERTAINTY_ASSIGNED_CONTEXT((#310))
GLOBAL_UNIT_ASSIGNED_CONTEXT((#314,#318,#319))
REPRESENTATION_CONTEXT('','3D')
);
#313=DIMENSIONAL_EXPONENTS(1.,0.,0.,0.,0.,0.,0.);
#314=(
CONVERSION_BASED_UNIT('inch',#317)
LENGTH_UNIT()
NAMED_UNIT(#313)
);
#315=(
LENGTH_UNIT()
NAMED_UNIT(*)
SI_UNIT(.MILLI.,.METRE.)
);
#316=(
LENGTH_UNIT()
NAMED_UNIT(*)
SI_UNIT($,.METRE.)
);
#317=LENGTH_MEASURE_WITH_UNIT(LENGTH_MEASURE(25.4),#315);
#318=(
NAMED_UNIT(*)
PLANE_ANGLE_UNIT()
SI_UNIT($,.RADIAN.)
);
#319=(
NAMED_UNIT(*)
SI_UNIT($,.STERADIAN.)
SOLID_ANGLE_UNIT()
);
#320=SHAPE_DEFINITION_REPRESENTATION(#321,#322);
#321=PRODUCT_DEFINITION_SHAPE('',$,#324);
#322=SHAPE_REPRESENTATION('',(#177),#311);
#323=PRODUCT_DEFINITION_CONTEXT('part definition',#328,'design');
#324=PRODUCT_DEFINITION('Same_Sky_CPG-37-TH-TR',
'Same_Sky_CPG-37-TH-TR v1',#325,#323);
#325=PRODUCT_DEFINITION_FORMATION('',$,#330);
#326=PRODUCT_RELATED_PRODUCT_CATEGORY('Same_Sky_CPG-37-TH-TR v1',
'Same_Sky_CPG-37-TH-TR v1',(#330));
#327=APPLICATION_PROTOCOL_DEFINITION('international standard',
'automotive_design',2009,#328);
#328=APPLICATION_CONTEXT(
'Core Data for Automotive Mechanical Design Process');
#329=PRODUCT_CONTEXT('part definition',#328,'mechanical');
#330=PRODUCT('Same_Sky_CPG-37-TH-TR','Same_Sky_CPG-37-TH-TR v1',
'STEP AP214',(#329));
#331=PRESENTATION_STYLE_ASSIGNMENT((#333));
#332=PRESENTATION_STYLE_ASSIGNMENT((#334));
#333=SURFACE_STYLE_USAGE(.BOTH.,#335);
#334=SURFACE_STYLE_USAGE(.BOTH.,#336);
#335=SURFACE_SIDE_STYLE('',(#337));
#336=SURFACE_SIDE_STYLE('',(#338));
#337=SURFACE_STYLE_FILL_AREA(#339);
#338=SURFACE_STYLE_FILL_AREA(#340);
#339=FILL_AREA_STYLE('Acciaio - Satinato',(#341));
#340=FILL_AREA_STYLE('Oro - Lucidato',(#342));
#341=FILL_AREA_STYLE_COLOUR('Acciaio - Satinato',#343);
#342=FILL_AREA_STYLE_COLOUR('Oro - Lucidato',#344);
#343=COLOUR_RGB('Acciaio - Satinato',0.627450980392157,0.627450980392157,
0.627450980392157);
#344=COLOUR_RGB('Oro - Lucidato',0.956862745098039,0.898039215686275,0.654901960784314);
ENDSEC;
END-ISO-10303-21;
