ISO-10303-21;
HEADER;
FILE_DESCRIPTION(('STEP AP214'),'1');
FILE_NAME('WLCSP49L_DIE447','2022-02-04T14:44:47',(''),(''),'','','');
FILE_SCHEMA(('AUTOMOTIVE_DESIGN'));
ENDSEC;
DATA;
#1=SHAPE_DEFINITION_REPRESENTATION(#2,#3);
#2=PRODUCT_DEFINITION_SHAPE('',$,#4);
#3=SHAPE_REPRESENTATION('',(#71,#80,#89,#98,#107,#116,#125,#134,#143,#152,#161,#170,#179,#188,#197,#206,#215,#224,#233,#242,#251,#260,#269,#278,#287,#296,#305,#314,#323,#332,#341,#350,#359,#368,#377,#386,#395,#404,#413,#422,#431,#440,#449,#458,#467,#476,#485,#494,#503,#513,#569,#19),#11);
#4=PRODUCT_DEFINITION('design','example product_definition',#6,#5);
#5=PRODUCT_DEFINITION_CONTEXT('3D Mechanical Parts',#10,'design');
#6=PRODUCT_DEFINITION_FORMATION('1.0','first version',#8);
#7=APPLICATION_PROTOCOL_DEFINITION('international standard','automotive_design',2003,#10);
#8=PRODUCT('product','part','',(#9));
#9=PRODUCT_CONTEXT('3D Mechanical Parts',#10,'mechanical');
#10=APPLICATION_CONTEXT('Core Data for Automotive Mechanical Design Process');
#11=(GEOMETRIC_REPRESENTATION_CONTEXT(3) GLOBAL_UNCERTAINTY_ASSIGNED_CONTEXT((#12)) GLOBAL_UNIT_ASSIGNED_CONTEXT((#13,#14,#18)) REPRESENTATION_CONTEXT('ID1','3D'));
#12=UNCERTAINTY_MEASURE_WITH_UNIT(LENGTH_MEASURE(1.E-005),#13,'DISTANCE_ACCURACY_VALUE','Maximum model space distance between geometric entities at asserted connectivities');
#13=(LENGTH_UNIT() NAMED_UNIT(*) SI_UNIT(.MILLI.,.METRE.));
#14=(CONVERSION_BASED_UNIT('degree',#16) NAMED_UNIT(#15) PLANE_ANGLE_UNIT());
#15=DIMENSIONAL_EXPONENTS(0.,0.,0.,0.,0.,0.,0.);
#16=MEASURE_WITH_UNIT(PLANE_ANGLE_MEASURE(0.01745329252),#17);
#17=(NAMED_UNIT(*) PLANE_ANGLE_UNIT() SI_UNIT($,.RADIAN.));
#18=(NAMED_UNIT(*) SI_UNIT($,.STERADIAN.) SOLID_ANGLE_UNIT());
#19=AXIS2_PLACEMENT_3D('',#20,#21,#22);
#20=CARTESIAN_POINT('',(0.0,0.0,0.0));
#21=DIRECTION('',(0.0,0.0,1.0));
#22=DIRECTION('',(1.0,0.0,0.0));
#25=MECHANICAL_DESIGN_GEOMETRIC_PRESENTATION_REPRESENTATION($,(#73,#82,#91,#100,#109,#118,#127,#136,#145,#154,#163,#172,#181,#190,#199,#208,#217,#226,#235,#244,#253,#262,#271,#280,#289,#298,#307,#316,#325,#334,#343,#352,#361,#370,#379,#388,#397,#406,#415,#424,#433,#442,#451,#460,#469,#478,#487,#496,#505,#565,#566,#567,#571,#620,#669,#718,#767,#816),#11);
#26=PRODUCT_CATEGORY_RELATIONSHIP('','',#27,#28);
#27=PRODUCT_CATEGORY('part','');
#28=PRODUCT_RELATED_PRODUCT_CATEGORY('','',(#8));
#34=PRESENTATION_STYLE_ASSIGNMENT((#35,#40));
#35=SURFACE_STYLE_USAGE(.BOTH.,#36);
#36=SURFACE_SIDE_STYLE('',(#37));
#37=SURFACE_STYLE_FILL_AREA(#38);
#38=FILL_AREA_STYLE('',(#39));
#39=FILL_AREA_STYLE_COLOUR('',#41);
#40=CURVE_STYLE('',#42,POSITIVE_LENGTH_MEASURE(0.1),#41);
#41=COLOUR_RGB('Aluminum',0.725,0.725,0.725);
#42=DRAUGHTING_PRE_DEFINED_CURVE_FONT('continuous');
#43=PRESENTATION_STYLE_ASSIGNMENT((#44,#49));
#44=SURFACE_STYLE_USAGE(.BOTH.,#45);
#45=SURFACE_SIDE_STYLE('',(#46));
#46=SURFACE_STYLE_FILL_AREA(#47);
#47=FILL_AREA_STYLE('',(#48));
#48=FILL_AREA_STYLE_COLOUR('',#50);
#49=CURVE_STYLE('',#51,POSITIVE_LENGTH_MEASURE(0.1),#50);
#50=COLOUR_RGB('Black',0.196,0.196,0.196);
#51=DRAUGHTING_PRE_DEFINED_CURVE_FONT('continuous');
#52=PRESENTATION_STYLE_ASSIGNMENT((#53,#58));
#53=SURFACE_STYLE_USAGE(.BOTH.,#54);
#54=SURFACE_SIDE_STYLE('',(#55));
#55=SURFACE_STYLE_FILL_AREA(#56);
#56=FILL_AREA_STYLE('',(#57));
#57=FILL_AREA_STYLE_COLOUR('',#59);
#58=CURVE_STYLE('',#60,POSITIVE_LENGTH_MEASURE(0.1),#59);
#59=COLOUR_RGB('Pin1',0.588,0.588,0.588);
#60=DRAUGHTING_PRE_DEFINED_CURVE_FONT('continuous');
#61=PRESENTATION_STYLE_ASSIGNMENT((#62,#67));
#62=SURFACE_STYLE_USAGE(.BOTH.,#63);
#63=SURFACE_SIDE_STYLE('',(#64));
#64=SURFACE_STYLE_FILL_AREA(#65);
#65=FILL_AREA_STYLE('',(#66));
#66=FILL_AREA_STYLE_COLOUR('',#68);
#67=CURVE_STYLE('',#69,POSITIVE_LENGTH_MEASURE(0.1),#68);
#68=COLOUR_RGB('HeatTab',0.588,0.588,0.588);
#69=DRAUGHTING_PRE_DEFINED_CURVE_FONT('continuous');
#71=MANIFOLD_SOLID_BREP($,#72);
#72=CLOSED_SHELL('',(#74));
#73=STYLED_ITEM('color',(#34),#74);
#74=ADVANCED_FACE('',(),#75,.T.);
#75=SPHERICAL_SURFACE('',#76,0.1143);
#76=AXIS2_PLACEMENT_3D('',#77,#78,#79);
#77=CARTESIAN_POINT('',(-1.2,1.2,0.114));
#78=DIRECTION('',(0.,0.,-1.));
#79=DIRECTION('',(-1.,0.,0.));
#80=MANIFOLD_SOLID_BREP($,#81);
#81=CLOSED_SHELL('',(#83));
#82=STYLED_ITEM('color',(#34),#83);
#83=ADVANCED_FACE('',(),#84,.T.);
#84=SPHERICAL_SURFACE('',#85,0.1143);
#85=AXIS2_PLACEMENT_3D('',#86,#87,#88);
#86=CARTESIAN_POINT('',(-0.8,1.2,0.114));
#87=DIRECTION('',(0.,0.,-1.));
#88=DIRECTION('',(-1.,0.,0.));
#89=MANIFOLD_SOLID_BREP($,#90);
#90=CLOSED_SHELL('',(#92));
#91=STYLED_ITEM('color',(#34),#92);
#92=ADVANCED_FACE('',(),#93,.T.);
#93=SPHERICAL_SURFACE('',#94,0.1143);
#94=AXIS2_PLACEMENT_3D('',#95,#96,#97);
#95=CARTESIAN_POINT('',(-0.4,1.2,0.114));
#96=DIRECTION('',(0.,0.,-1.));
#97=DIRECTION('',(-1.,0.,0.));
#98=MANIFOLD_SOLID_BREP($,#99);
#99=CLOSED_SHELL('',(#101));
#100=STYLED_ITEM('color',(#34),#101);
#101=ADVANCED_FACE('',(),#102,.T.);
#102=SPHERICAL_SURFACE('',#103,0.1143);
#103=AXIS2_PLACEMENT_3D('',#104,#105,#106);
#104=CARTESIAN_POINT('',(0.0,1.2,0.114));
#105=DIRECTION('',(0.,0.,-1.));
#106=DIRECTION('',(-1.,0.,0.));
#107=MANIFOLD_SOLID_BREP($,#108);
#108=CLOSED_SHELL('',(#110));
#109=STYLED_ITEM('color',(#34),#110);
#110=ADVANCED_FACE('',(),#111,.T.);
#111=SPHERICAL_SURFACE('',#112,0.1143);
#112=AXIS2_PLACEMENT_3D('',#113,#114,#115);
#113=CARTESIAN_POINT('',(0.4,1.2,0.114));
#114=DIRECTION('',(0.,0.,-1.));
#115=DIRECTION('',(-1.,0.,0.));
#116=MANIFOLD_SOLID_BREP($,#117);
#117=CLOSED_SHELL('',(#119));
#118=STYLED_ITEM('color',(#34),#119);
#119=ADVANCED_FACE('',(),#120,.T.);
#120=SPHERICAL_SURFACE('',#121,0.1143);
#121=AXIS2_PLACEMENT_3D('',#122,#123,#124);
#122=CARTESIAN_POINT('',(0.8,1.2,0.114));
#123=DIRECTION('',(0.,0.,-1.));
#124=DIRECTION('',(-1.,0.,0.));
#125=MANIFOLD_SOLID_BREP($,#126);
#126=CLOSED_SHELL('',(#128));
#127=STYLED_ITEM('color',(#34),#128);
#128=ADVANCED_FACE('',(),#129,.T.);
#129=SPHERICAL_SURFACE('',#130,0.1143);
#130=AXIS2_PLACEMENT_3D('',#131,#132,#133);
#131=CARTESIAN_POINT('',(1.2,1.2,0.114));
#132=DIRECTION('',(0.,0.,-1.));
#133=DIRECTION('',(-1.,0.,0.));
#134=MANIFOLD_SOLID_BREP($,#135);
#135=CLOSED_SHELL('',(#137));
#136=STYLED_ITEM('color',(#34),#137);
#137=ADVANCED_FACE('',(),#138,.T.);
#138=SPHERICAL_SURFACE('',#139,0.1143);
#139=AXIS2_PLACEMENT_3D('',#140,#141,#142);
#140=CARTESIAN_POINT('',(-1.2,0.8,0.114));
#141=DIRECTION('',(0.,0.,-1.));
#142=DIRECTION('',(-1.,0.,0.));
#143=MANIFOLD_SOLID_BREP($,#144);
#144=CLOSED_SHELL('',(#146));
#145=STYLED_ITEM('color',(#34),#146);
#146=ADVANCED_FACE('',(),#147,.T.);
#147=SPHERICAL_SURFACE('',#148,0.1143);
#148=AXIS2_PLACEMENT_3D('',#149,#150,#151);
#149=CARTESIAN_POINT('',(-0.8,0.8,0.114));
#150=DIRECTION('',(0.,0.,-1.));
#151=DIRECTION('',(-1.,0.,0.));
#152=MANIFOLD_SOLID_BREP($,#153);
#153=CLOSED_SHELL('',(#155));
#154=STYLED_ITEM('color',(#34),#155);
#155=ADVANCED_FACE('',(),#156,.T.);
#156=SPHERICAL_SURFACE('',#157,0.1143);
#157=AXIS2_PLACEMENT_3D('',#158,#159,#160);
#158=CARTESIAN_POINT('',(-0.4,0.8,0.114));
#159=DIRECTION('',(0.,0.,-1.));
#160=DIRECTION('',(-1.,0.,0.));
#161=MANIFOLD_SOLID_BREP($,#162);
#162=CLOSED_SHELL('',(#164));
#163=STYLED_ITEM('color',(#34),#164);
#164=ADVANCED_FACE('',(),#165,.T.);
#165=SPHERICAL_SURFACE('',#166,0.1143);
#166=AXIS2_PLACEMENT_3D('',#167,#168,#169);
#167=CARTESIAN_POINT('',(0.0,0.8,0.114));
#168=DIRECTION('',(0.,0.,-1.));
#169=DIRECTION('',(-1.,0.,0.));
#170=MANIFOLD_SOLID_BREP($,#171);
#171=CLOSED_SHELL('',(#173));
#172=STYLED_ITEM('color',(#34),#173);
#173=ADVANCED_FACE('',(),#174,.T.);
#174=SPHERICAL_SURFACE('',#175,0.1143);
#175=AXIS2_PLACEMENT_3D('',#176,#177,#178);
#176=CARTESIAN_POINT('',(0.4,0.8,0.114));
#177=DIRECTION('',(0.,0.,-1.));
#178=DIRECTION('',(-1.,0.,0.));
#179=MANIFOLD_SOLID_BREP($,#180);
#180=CLOSED_SHELL('',(#182));
#181=STYLED_ITEM('color',(#34),#182);
#182=ADVANCED_FACE('',(),#183,.T.);
#183=SPHERICAL_SURFACE('',#184,0.1143);
#184=AXIS2_PLACEMENT_3D('',#185,#186,#187);
#185=CARTESIAN_POINT('',(0.8,0.8,0.114));
#186=DIRECTION('',(0.,0.,-1.));
#187=DIRECTION('',(-1.,0.,0.));
#188=MANIFOLD_SOLID_BREP($,#189);
#189=CLOSED_SHELL('',(#191));
#190=STYLED_ITEM('color',(#34),#191);
#191=ADVANCED_FACE('',(),#192,.T.);
#192=SPHERICAL_SURFACE('',#193,0.1143);
#193=AXIS2_PLACEMENT_3D('',#194,#195,#196);
#194=CARTESIAN_POINT('',(1.2,0.8,0.114));
#195=DIRECTION('',(0.,0.,-1.));
#196=DIRECTION('',(-1.,0.,0.));
#197=MANIFOLD_SOLID_BREP($,#198);
#198=CLOSED_SHELL('',(#200));
#199=STYLED_ITEM('color',(#34),#200);
#200=ADVANCED_FACE('',(),#201,.T.);
#201=SPHERICAL_SURFACE('',#202,0.1143);
#202=AXIS2_PLACEMENT_3D('',#203,#204,#205);
#203=CARTESIAN_POINT('',(-1.2,0.4,0.114));
#204=DIRECTION('',(0.,0.,-1.));
#205=DIRECTION('',(-1.,0.,0.));
#206=MANIFOLD_SOLID_BREP($,#207);
#207=CLOSED_SHELL('',(#209));
#208=STYLED_ITEM('color',(#34),#209);
#209=ADVANCED_FACE('',(),#210,.T.);
#210=SPHERICAL_SURFACE('',#211,0.1143);
#211=AXIS2_PLACEMENT_3D('',#212,#213,#214);
#212=CARTESIAN_POINT('',(-0.8,0.4,0.114));
#213=DIRECTION('',(0.,0.,-1.));
#214=DIRECTION('',(-1.,0.,0.));
#215=MANIFOLD_SOLID_BREP($,#216);
#216=CLOSED_SHELL('',(#218));
#217=STYLED_ITEM('color',(#34),#218);
#218=ADVANCED_FACE('',(),#219,.T.);
#219=SPHERICAL_SURFACE('',#220,0.1143);
#220=AXIS2_PLACEMENT_3D('',#221,#222,#223);
#221=CARTESIAN_POINT('',(-0.4,0.4,0.114));
#222=DIRECTION('',(0.,0.,-1.));
#223=DIRECTION('',(-1.,0.,0.));
#224=MANIFOLD_SOLID_BREP($,#225);
#225=CLOSED_SHELL('',(#227));
#226=STYLED_ITEM('color',(#34),#227);
#227=ADVANCED_FACE('',(),#228,.T.);
#228=SPHERICAL_SURFACE('',#229,0.1143);
#229=AXIS2_PLACEMENT_3D('',#230,#231,#232);
#230=CARTESIAN_POINT('',(0.0,0.4,0.114));
#231=DIRECTION('',(0.,0.,-1.));
#232=DIRECTION('',(-1.,0.,0.));
#233=MANIFOLD_SOLID_BREP($,#234);
#234=CLOSED_SHELL('',(#236));
#235=STYLED_ITEM('color',(#34),#236);
#236=ADVANCED_FACE('',(),#237,.T.);
#237=SPHERICAL_SURFACE('',#238,0.1143);
#238=AXIS2_PLACEMENT_3D('',#239,#240,#241);
#239=CARTESIAN_POINT('',(0.4,0.4,0.114));
#240=DIRECTION('',(0.,0.,-1.));
#241=DIRECTION('',(-1.,0.,0.));
#242=MANIFOLD_SOLID_BREP($,#243);
#243=CLOSED_SHELL('',(#245));
#244=STYLED_ITEM('color',(#34),#245);
#245=ADVANCED_FACE('',(),#246,.T.);
#246=SPHERICAL_SURFACE('',#247,0.1143);
#247=AXIS2_PLACEMENT_3D('',#248,#249,#250);
#248=CARTESIAN_POINT('',(0.8,0.4,0.114));
#249=DIRECTION('',(0.,0.,-1.));
#250=DIRECTION('',(-1.,0.,0.));
#251=MANIFOLD_SOLID_BREP($,#252);
#252=CLOSED_SHELL('',(#254));
#253=STYLED_ITEM('color',(#34),#254);
#254=ADVANCED_FACE('',(),#255,.T.);
#255=SPHERICAL_SURFACE('',#256,0.1143);
#256=AXIS2_PLACEMENT_3D('',#257,#258,#259);
#257=CARTESIAN_POINT('',(1.2,0.4,0.114));
#258=DIRECTION('',(0.,0.,-1.));
#259=DIRECTION('',(-1.,0.,0.));
#260=MANIFOLD_SOLID_BREP($,#261);
#261=CLOSED_SHELL('',(#263));
#262=STYLED_ITEM('color',(#34),#263);
#263=ADVANCED_FACE('',(),#264,.T.);
#264=SPHERICAL_SURFACE('',#265,0.1143);
#265=AXIS2_PLACEMENT_3D('',#266,#267,#268);
#266=CARTESIAN_POINT('',(-1.2,0.0,0.114));
#267=DIRECTION('',(0.,0.,-1.));
#268=DIRECTION('',(-1.,0.,0.));
#269=MANIFOLD_SOLID_BREP($,#270);
#270=CLOSED_SHELL('',(#272));
#271=STYLED_ITEM('color',(#34),#272);
#272=ADVANCED_FACE('',(),#273,.T.);
#273=SPHERICAL_SURFACE('',#274,0.1143);
#274=AXIS2_PLACEMENT_3D('',#275,#276,#277);
#275=CARTESIAN_POINT('',(-0.8,0.0,0.114));
#276=DIRECTION('',(0.,0.,-1.));
#277=DIRECTION('',(-1.,0.,0.));
#278=MANIFOLD_SOLID_BREP($,#279);
#279=CLOSED_SHELL('',(#281));
#280=STYLED_ITEM('color',(#34),#281);
#281=ADVANCED_FACE('',(),#282,.T.);
#282=SPHERICAL_SURFACE('',#283,0.1143);
#283=AXIS2_PLACEMENT_3D('',#284,#285,#286);
#284=CARTESIAN_POINT('',(-0.4,0.0,0.114));
#285=DIRECTION('',(0.,0.,-1.));
#286=DIRECTION('',(-1.,0.,0.));
#287=MANIFOLD_SOLID_BREP($,#288);
#288=CLOSED_SHELL('',(#290));
#289=STYLED_ITEM('color',(#34),#290);
#290=ADVANCED_FACE('',(),#291,.T.);
#291=SPHERICAL_SURFACE('',#292,0.1143);
#292=AXIS2_PLACEMENT_3D('',#293,#294,#295);
#293=CARTESIAN_POINT('',(0.0,0.0,0.114));
#294=DIRECTION('',(0.,0.,-1.));
#295=DIRECTION('',(-1.,0.,0.));
#296=MANIFOLD_SOLID_BREP($,#297);
#297=CLOSED_SHELL('',(#299));
#298=STYLED_ITEM('color',(#34),#299);
#299=ADVANCED_FACE('',(),#300,.T.);
#300=SPHERICAL_SURFACE('',#301,0.1143);
#301=AXIS2_PLACEMENT_3D('',#302,#303,#304);
#302=CARTESIAN_POINT('',(0.4,0.0,0.114));
#303=DIRECTION('',(0.,0.,-1.));
#304=DIRECTION('',(-1.,0.,0.));
#305=MANIFOLD_SOLID_BREP($,#306);
#306=CLOSED_SHELL('',(#308));
#307=STYLED_ITEM('color',(#34),#308);
#308=ADVANCED_FACE('',(),#309,.T.);
#309=SPHERICAL_SURFACE('',#310,0.1143);
#310=AXIS2_PLACEMENT_3D('',#311,#312,#313);
#311=CARTESIAN_POINT('',(0.8,0.0,0.114));
#312=DIRECTION('',(0.,0.,-1.));
#313=DIRECTION('',(-1.,0.,0.));
#314=MANIFOLD_SOLID_BREP($,#315);
#315=CLOSED_SHELL('',(#317));
#316=STYLED_ITEM('color',(#34),#317);
#317=ADVANCED_FACE('',(),#318,.T.);
#318=SPHERICAL_SURFACE('',#319,0.1143);
#319=AXIS2_PLACEMENT_3D('',#320,#321,#322);
#320=CARTESIAN_POINT('',(1.2,0.0,0.114));
#321=DIRECTION('',(0.,0.,-1.));
#322=DIRECTION('',(-1.,0.,0.));
#323=MANIFOLD_SOLID_BREP($,#324);
#324=CLOSED_SHELL('',(#326));
#325=STYLED_ITEM('color',(#34),#326);
#326=ADVANCED_FACE('',(),#327,.T.);
#327=SPHERICAL_SURFACE('',#328,0.1143);
#328=AXIS2_PLACEMENT_3D('',#329,#330,#331);
#329=CARTESIAN_POINT('',(-1.2,-0.4,0.114));
#330=DIRECTION('',(0.,0.,-1.));
#331=DIRECTION('',(-1.,0.,0.));
#332=MANIFOLD_SOLID_BREP($,#333);
#333=CLOSED_SHELL('',(#335));
#334=STYLED_ITEM('color',(#34),#335);
#335=ADVANCED_FACE('',(),#336,.T.);
#336=SPHERICAL_SURFACE('',#337,0.1143);
#337=AXIS2_PLACEMENT_3D('',#338,#339,#340);
#338=CARTESIAN_POINT('',(-0.8,-0.4,0.114));
#339=DIRECTION('',(0.,0.,-1.));
#340=DIRECTION('',(-1.,0.,0.));
#341=MANIFOLD_SOLID_BREP($,#342);
#342=CLOSED_SHELL('',(#344));
#343=STYLED_ITEM('color',(#34),#344);
#344=ADVANCED_FACE('',(),#345,.T.);
#345=SPHERICAL_SURFACE('',#346,0.1143);
#346=AXIS2_PLACEMENT_3D('',#347,#348,#349);
#347=CARTESIAN_POINT('',(-0.4,-0.4,0.114));
#348=DIRECTION('',(0.,0.,-1.));
#349=DIRECTION('',(-1.,0.,0.));
#350=MANIFOLD_SOLID_BREP($,#351);
#351=CLOSED_SHELL('',(#353));
#352=STYLED_ITEM('color',(#34),#353);
#353=ADVANCED_FACE('',(),#354,.T.);
#354=SPHERICAL_SURFACE('',#355,0.1143);
#355=AXIS2_PLACEMENT_3D('',#356,#357,#358);
#356=CARTESIAN_POINT('',(0.0,-0.4,0.114));
#357=DIRECTION('',(0.,0.,-1.));
#358=DIRECTION('',(-1.,0.,0.));
#359=MANIFOLD_SOLID_BREP($,#360);
#360=CLOSED_SHELL('',(#362));
#361=STYLED_ITEM('color',(#34),#362);
#362=ADVANCED_FACE('',(),#363,.T.);
#363=SPHERICAL_SURFACE('',#364,0.1143);
#364=AXIS2_PLACEMENT_3D('',#365,#366,#367);
#365=CARTESIAN_POINT('',(0.4,-0.4,0.114));
#366=DIRECTION('',(0.,0.,-1.));
#367=DIRECTION('',(-1.,0.,0.));
#368=MANIFOLD_SOLID_BREP($,#369);
#369=CLOSED_SHELL('',(#371));
#370=STYLED_ITEM('color',(#34),#371);
#371=ADVANCED_FACE('',(),#372,.T.);
#372=SPHERICAL_SURFACE('',#373,0.1143);
#373=AXIS2_PLACEMENT_3D('',#374,#375,#376);
#374=CARTESIAN_POINT('',(0.8,-0.4,0.114));
#375=DIRECTION('',(0.,0.,-1.));
#376=DIRECTION('',(-1.,0.,0.));
#377=MANIFOLD_SOLID_BREP($,#378);
#378=CLOSED_SHELL('',(#380));
#379=STYLED_ITEM('color',(#34),#380);
#380=ADVANCED_FACE('',(),#381,.T.);
#381=SPHERICAL_SURFACE('',#382,0.1143);
#382=AXIS2_PLACEMENT_3D('',#383,#384,#385);
#383=CARTESIAN_POINT('',(1.2,-0.4,0.114));
#384=DIRECTION('',(0.,0.,-1.));
#385=DIRECTION('',(-1.,0.,0.));
#386=MANIFOLD_SOLID_BREP($,#387);
#387=CLOSED_SHELL('',(#389));
#388=STYLED_ITEM('color',(#34),#389);
#389=ADVANCED_FACE('',(),#390,.T.);
#390=SPHERICAL_SURFACE('',#391,0.1143);
#391=AXIS2_PLACEMENT_3D('',#392,#393,#394);
#392=CARTESIAN_POINT('',(-1.2,-0.8,0.114));
#393=DIRECTION('',(0.,0.,-1.));
#394=DIRECTION('',(-1.,0.,0.));
#395=MANIFOLD_SOLID_BREP($,#396);
#396=CLOSED_SHELL('',(#398));
#397=STYLED_ITEM('color',(#34),#398);
#398=ADVANCED_FACE('',(),#399,.T.);
#399=SPHERICAL_SURFACE('',#400,0.1143);
#400=AXIS2_PLACEMENT_3D('',#401,#402,#403);
#401=CARTESIAN_POINT('',(-0.8,-0.8,0.114));
#402=DIRECTION('',(0.,0.,-1.));
#403=DIRECTION('',(-1.,0.,0.));
#404=MANIFOLD_SOLID_BREP($,#405);
#405=CLOSED_SHELL('',(#407));
#406=STYLED_ITEM('color',(#34),#407);
#407=ADVANCED_FACE('',(),#408,.T.);
#408=SPHERICAL_SURFACE('',#409,0.1143);
#409=AXIS2_PLACEMENT_3D('',#410,#411,#412);
#410=CARTESIAN_POINT('',(-0.4,-0.8,0.114));
#411=DIRECTION('',(0.,0.,-1.));
#412=DIRECTION('',(-1.,0.,0.));
#413=MANIFOLD_SOLID_BREP($,#414);
#414=CLOSED_SHELL('',(#416));
#415=STYLED_ITEM('color',(#34),#416);
#416=ADVANCED_FACE('',(),#417,.T.);
#417=SPHERICAL_SURFACE('',#418,0.1143);
#418=AXIS2_PLACEMENT_3D('',#419,#420,#421);
#419=CARTESIAN_POINT('',(0.0,-0.8,0.114));
#420=DIRECTION('',(0.,0.,-1.));
#421=DIRECTION('',(-1.,0.,0.));
#422=MANIFOLD_SOLID_BREP($,#423);
#423=CLOSED_SHELL('',(#425));
#424=STYLED_ITEM('color',(#34),#425);
#425=ADVANCED_FACE('',(),#426,.T.);
#426=SPHERICAL_SURFACE('',#427,0.1143);
#427=AXIS2_PLACEMENT_3D('',#428,#429,#430);
#428=CARTESIAN_POINT('',(0.4,-0.8,0.114));
#429=DIRECTION('',(0.,0.,-1.));
#430=DIRECTION('',(-1.,0.,0.));
#431=MANIFOLD_SOLID_BREP($,#432);
#432=CLOSED_SHELL('',(#434));
#433=STYLED_ITEM('color',(#34),#434);
#434=ADVANCED_FACE('',(),#435,.T.);
#435=SPHERICAL_SURFACE('',#436,0.1143);
#436=AXIS2_PLACEMENT_3D('',#437,#438,#439);
#437=CARTESIAN_POINT('',(0.8,-0.8,0.114));
#438=DIRECTION('',(0.,0.,-1.));
#439=DIRECTION('',(-1.,0.,0.));
#440=MANIFOLD_SOLID_BREP($,#441);
#441=CLOSED_SHELL('',(#443));
#442=STYLED_ITEM('color',(#34),#443);
#443=ADVANCED_FACE('',(),#444,.T.);
#444=SPHERICAL_SURFACE('',#445,0.1143);
#445=AXIS2_PLACEMENT_3D('',#446,#447,#448);
#446=CARTESIAN_POINT('',(1.2,-0.8,0.114));
#447=DIRECTION('',(0.,0.,-1.));
#448=DIRECTION('',(-1.,0.,0.));
#449=MANIFOLD_SOLID_BREP($,#450);
#450=CLOSED_SHELL('',(#452));
#451=STYLED_ITEM('color',(#34),#452);
#452=ADVANCED_FACE('',(),#453,.T.);
#453=SPHERICAL_SURFACE('',#454,0.1143);
#454=AXIS2_PLACEMENT_3D('',#455,#456,#457);
#455=CARTESIAN_POINT('',(-1.2,-1.2,0.114));
#456=DIRECTION('',(0.,0.,-1.));
#457=DIRECTION('',(-1.,0.,0.));
#458=MANIFOLD_SOLID_BREP($,#459);
#459=CLOSED_SHELL('',(#461));
#460=STYLED_ITEM('color',(#34),#461);
#461=ADVANCED_FACE('',(),#462,.T.);
#462=SPHERICAL_SURFACE('',#463,0.1143);
#463=AXIS2_PLACEMENT_3D('',#464,#465,#466);
#464=CARTESIAN_POINT('',(-0.8,-1.2,0.114));
#465=DIRECTION('',(0.,0.,-1.));
#466=DIRECTION('',(-1.,0.,0.));
#467=MANIFOLD_SOLID_BREP($,#468);
#468=CLOSED_SHELL('',(#470));
#469=STYLED_ITEM('color',(#34),#470);
#470=ADVANCED_FACE('',(),#471,.T.);
#471=SPHERICAL_SURFACE('',#472,0.1143);
#472=AXIS2_PLACEMENT_3D('',#473,#474,#475);
#473=CARTESIAN_POINT('',(-0.4,-1.2,0.114));
#474=DIRECTION('',(0.,0.,-1.));
#475=DIRECTION('',(-1.,0.,0.));
#476=MANIFOLD_SOLID_BREP($,#477);
#477=CLOSED_SHELL('',(#479));
#478=STYLED_ITEM('color',(#34),#479);
#479=ADVANCED_FACE('',(),#480,.T.);
#480=SPHERICAL_SURFACE('',#481,0.1143);
#481=AXIS2_PLACEMENT_3D('',#482,#483,#484);
#482=CARTESIAN_POINT('',(0.0,-1.2,0.114));
#483=DIRECTION('',(0.,0.,-1.));
#484=DIRECTION('',(-1.,0.,0.));
#485=MANIFOLD_SOLID_BREP($,#486);
#486=CLOSED_SHELL('',(#488));
#487=STYLED_ITEM('color',(#34),#488);
#488=ADVANCED_FACE('',(),#489,.T.);
#489=SPHERICAL_SURFACE('',#490,0.1143);
#490=AXIS2_PLACEMENT_3D('',#491,#492,#493);
#491=CARTESIAN_POINT('',(0.4,-1.2,0.114));
#492=DIRECTION('',(0.,0.,-1.));
#493=DIRECTION('',(-1.,0.,0.));
#494=MANIFOLD_SOLID_BREP($,#495);
#495=CLOSED_SHELL('',(#497));
#496=STYLED_ITEM('color',(#34),#497);
#497=ADVANCED_FACE('',(),#498,.T.);
#498=SPHERICAL_SURFACE('',#499,0.1143);
#499=AXIS2_PLACEMENT_3D('',#500,#501,#502);
#500=CARTESIAN_POINT('',(0.8,-1.2,0.114));
#501=DIRECTION('',(0.,0.,-1.));
#502=DIRECTION('',(-1.,0.,0.));
#503=MANIFOLD_SOLID_BREP($,#504);
#504=CLOSED_SHELL('',(#506));
#505=STYLED_ITEM('color',(#34),#506);
#506=ADVANCED_FACE('',(),#507,.T.);
#507=SPHERICAL_SURFACE('',#508,0.1143);
#508=AXIS2_PLACEMENT_3D('',#509,#510,#511);
#509=CARTESIAN_POINT('',(1.2,-1.2,0.114));
#510=DIRECTION('',(0.,0.,-1.));
#511=DIRECTION('',(-1.,0.,0.));
#513=MANIFOLD_SOLID_BREP($,#514);
#514=CLOSED_SHELL('',(#515,#516,#517));
#515=ADVANCED_FACE($,(#521,#520),#538,.T.);
#516=ADVANCED_FACE($,(#522),#518,.F.);
#517=ADVANCED_FACE($,(#523),#519,.T.);
#518=PLANE($,#543);
#519=PLANE($,#544);
#520=FACE_BOUND($,#525,.T.);
#521=FACE_OUTER_BOUND($,#524,.T.);
#522=FACE_OUTER_BOUND($,#526,.T.);
#523=FACE_OUTER_BOUND($,#527,.T.);
#524=EDGE_LOOP($,(#534));
#525=EDGE_LOOP($,(#535));
#526=EDGE_LOOP($,(#536));
#527=EDGE_LOOP($,(#537));
#528=CIRCLE($,#541,0.08255);
#529=CIRCLE($,#542,0.08255);
#530=VERTEX_POINT('',#559);
#531=VERTEX_POINT('',#561);
#532=EDGE_CURVE($,#530,#530,#528,.T.);
#533=EDGE_CURVE($,#531,#531,#529,.T.);
#534=ORIENTED_EDGE($,*,*,#532,.F.);
#535=ORIENTED_EDGE($,*,*,#533,.F.);
#536=ORIENTED_EDGE($,*,*,#533,.T.);
#537=ORIENTED_EDGE($,*,*,#532,.T.);
#538=CYLINDRICAL_SURFACE($,#540,0.08255);
#539=AXIS2_PLACEMENT_3D('placement',#557,#545,#546);
#540=AXIS2_PLACEMENT_3D($,#558,#547,#548);
#541=AXIS2_PLACEMENT_3D($,#560,#549,#550);
#542=AXIS2_PLACEMENT_3D($,#562,#551,#552);
#543=AXIS2_PLACEMENT_3D($,#563,#553,#554);
#544=AXIS2_PLACEMENT_3D($,#564,#555,#556);
#545=DIRECTION('axis',(0.,1.,0.));
#546=DIRECTION('refdir',(1.,0.,0.));
#547=DIRECTION('',(0.,0.,1.));
#548=DIRECTION('',(1.,0.,0.));
#549=DIRECTION('',(0.,0.,1.));
#550=DIRECTION('',(1.,0.,0.));
#551=DIRECTION('',(0.,0.,-1.));
#552=DIRECTION('',(1.,0.,0.));
#553=DIRECTION('',(0.,0.,1.));
#554=DIRECTION('',(0.,1.,0.));
#555=DIRECTION('',(0.,0.,1.));
#556=DIRECTION('',(0.,1.,0.));
#557=CARTESIAN_POINT('',(0.,0.,0.));
#558=CARTESIAN_POINT('',(-1.334,1.321,0.584));
#559=CARTESIAN_POINT('',(-1.416,1.321,0.587));
#560=CARTESIAN_POINT('',(-1.334,1.321,0.587));
#561=CARTESIAN_POINT('',(-1.416,1.321,0.584));
#562=CARTESIAN_POINT('',(-1.334,1.321,0.584));
#563=CARTESIAN_POINT('',(-1.334,1.321,0.584));
#564=CARTESIAN_POINT('',(-1.334,1.321,0.587));
#565=STYLED_ITEM('color',(#52),#515);
#566=STYLED_ITEM('color',(#52),#516);
#567=STYLED_ITEM('color',(#52),#517);
#569=MANIFOLD_SOLID_BREP($,#570);
#570=CLOSED_SHELL('',(#572,#621,#670,#719,#768,#817));
#571=STYLED_ITEM('',(#43),#572);
#572=ADVANCED_FACE('',(#578),#573,.T.);
#573=PLANE('',#574);
#574=AXIS2_PLACEMENT_3D('',#575,#576,#577);
#575=CARTESIAN_POINT('',(-1.664,-1.651,0.228));
#576=DIRECTION('',(0.0,-1.0,0.0));
#577=DIRECTION('',(0.,0.,1.));
#578=FACE_OUTER_BOUND('',#579,.T.);
#579=EDGE_LOOP('',(#580,#590,#600,#610));
#583=CARTESIAN_POINT('',(1.664,-1.651,0.228));
#582=VERTEX_POINT('',#583);
#585=CARTESIAN_POINT('',(-1.664,-1.651,0.228));
#584=VERTEX_POINT('',#585);
#581=EDGE_CURVE('',#582,#584,#586,.T.);
#586=LINE('',#583,#588);
#588=VECTOR('',#589,3.3274);
#589=DIRECTION('',(-1.0,0.0,0.0));
#580=ORIENTED_EDGE('',*,*,#581,.F.);
#593=CARTESIAN_POINT('',(1.664,-1.651,0.584));
#592=VERTEX_POINT('',#593);
#591=EDGE_CURVE('',#592,#582,#596,.T.);
#596=LINE('',#593,#598);
#598=VECTOR('',#599,0.3566000000066);
#599=DIRECTION('',(0.0,0.0,-1.0));
#590=ORIENTED_EDGE('',*,*,#591,.F.);
#603=CARTESIAN_POINT('',(-1.664,-1.651,0.584));
#602=VERTEX_POINT('',#603);
#601=EDGE_CURVE('',#602,#592,#606,.T.);
#606=LINE('',#603,#608);
#608=VECTOR('',#609,3.3274);
#609=DIRECTION('',(1.0,0.0,0.0));
#600=ORIENTED_EDGE('',*,*,#601,.F.);
#611=EDGE_CURVE('',#584,#602,#616,.T.);
#616=LINE('',#585,#618);
#618=VECTOR('',#619,0.3566000000066);
#619=DIRECTION('',(0.0,0.0,1.0));
#610=ORIENTED_EDGE('',*,*,#611,.F.);
#620=STYLED_ITEM('',(#43),#621);
#621=ADVANCED_FACE('',(#627),#622,.T.);
#622=PLANE('',#623);
#623=AXIS2_PLACEMENT_3D('',#624,#625,#626);
#624=CARTESIAN_POINT('',(1.664,-1.651,0.228));
#625=DIRECTION('',(1.0,0.0,0.0));
#626=DIRECTION('',(0.,0.,1.));
#627=FACE_OUTER_BOUND('',#628,.T.);
#628=EDGE_LOOP('',(#629,#639,#649,#659));
#632=CARTESIAN_POINT('',(1.664,1.651,0.228));
#631=VERTEX_POINT('',#632);
#630=EDGE_CURVE('',#631,#582,#635,.T.);
#635=LINE('',#632,#637);
#637=VECTOR('',#638,3.302);
#638=DIRECTION('',(0.0,-1.0,0.0));
#629=ORIENTED_EDGE('',*,*,#630,.F.);
#642=CARTESIAN_POINT('',(1.664,1.651,0.584));
#641=VERTEX_POINT('',#642);
#640=EDGE_CURVE('',#641,#631,#645,.T.);
#645=LINE('',#642,#647);
#647=VECTOR('',#648,0.3566000000066);
#648=DIRECTION('',(0.0,0.0,-1.0));
#639=ORIENTED_EDGE('',*,*,#640,.F.);
#650=EDGE_CURVE('',#592,#641,#655,.T.);
#655=LINE('',#593,#657);
#657=VECTOR('',#658,3.302);
#658=DIRECTION('',(0.0,1.0,0.0));
#649=ORIENTED_EDGE('',*,*,#650,.F.);
#659=ORIENTED_EDGE('',*,*,#591,.T.);
#669=STYLED_ITEM('',(#43),#670);
#670=ADVANCED_FACE('',(#676),#671,.T.);
#671=PLANE('',#672);
#672=AXIS2_PLACEMENT_3D('',#673,#674,#675);
#673=CARTESIAN_POINT('',(1.664,1.651,0.228));
#674=DIRECTION('',(0.0,1.0,0.0));
#675=DIRECTION('',(0.,0.,1.));
#676=FACE_OUTER_BOUND('',#677,.T.);
#677=EDGE_LOOP('',(#678,#688,#698,#708));
#681=CARTESIAN_POINT('',(-1.664,1.651,0.228));
#680=VERTEX_POINT('',#681);
#679=EDGE_CURVE('',#680,#631,#684,.T.);
#684=LINE('',#681,#686);
#686=VECTOR('',#687,3.3274);
#687=DIRECTION('',(1.0,0.0,0.0));
#678=ORIENTED_EDGE('',*,*,#679,.F.);
#691=CARTESIAN_POINT('',(-1.664,1.651,0.584));
#690=VERTEX_POINT('',#691);
#689=EDGE_CURVE('',#690,#680,#694,.T.);
#694=LINE('',#691,#696);
#696=VECTOR('',#697,0.3566000000066);
#697=DIRECTION('',(0.0,0.0,-1.0));
#688=ORIENTED_EDGE('',*,*,#689,.F.);
#699=EDGE_CURVE('',#641,#690,#704,.T.);
#704=LINE('',#642,#706);
#706=VECTOR('',#707,3.3274);
#707=DIRECTION('',(-1.0,0.0,0.0));
#698=ORIENTED_EDGE('',*,*,#699,.F.);
#708=ORIENTED_EDGE('',*,*,#640,.T.);
#718=STYLED_ITEM('',(#43),#719);
#719=ADVANCED_FACE('',(#725),#720,.T.);
#720=PLANE('',#721);
#721=AXIS2_PLACEMENT_3D('',#722,#723,#724);
#722=CARTESIAN_POINT('',(-1.664,1.651,0.228));
#723=DIRECTION('',(-1.0,0.0,0.0));
#724=DIRECTION('',(0.,0.,1.));
#725=FACE_OUTER_BOUND('',#726,.T.);
#726=EDGE_LOOP('',(#727,#737,#747,#757));
#728=EDGE_CURVE('',#584,#680,#733,.T.);
#733=LINE('',#585,#735);
#735=VECTOR('',#736,3.302);
#736=DIRECTION('',(0.0,1.0,0.0));
#727=ORIENTED_EDGE('',*,*,#728,.F.);
#737=ORIENTED_EDGE('',*,*,#611,.T.);
#748=EDGE_CURVE('',#690,#602,#753,.T.);
#753=LINE('',#691,#755);
#755=VECTOR('',#756,3.302);
#756=DIRECTION('',(0.0,-1.0,0.0));
#747=ORIENTED_EDGE('',*,*,#748,.F.);
#757=ORIENTED_EDGE('',*,*,#689,.T.);
#767=STYLED_ITEM('',(#43),#768);
#768=ADVANCED_FACE('',(#774),#769,.T.);
#769=PLANE('',#770);
#770=AXIS2_PLACEMENT_3D('',#771,#772,#773);
#771=CARTESIAN_POINT('',(-1.664,1.651,0.228));
#772=DIRECTION('',(0.0,0.0,-1.0));
#773=DIRECTION('',(0.,1.,0.));
#774=FACE_OUTER_BOUND('',#775,.T.);
#775=EDGE_LOOP('',(#776,#786,#796,#806));
#776=ORIENTED_EDGE('',*,*,#679,.T.);
#786=ORIENTED_EDGE('',*,*,#630,.T.);
#796=ORIENTED_EDGE('',*,*,#581,.T.);
#806=ORIENTED_EDGE('',*,*,#728,.T.);
#816=STYLED_ITEM('',(#43),#817);
#817=ADVANCED_FACE('',(#823),#818,.T.);
#818=PLANE('',#819);
#819=AXIS2_PLACEMENT_3D('',#820,#821,#822);
#820=CARTESIAN_POINT('',(-1.664,-1.651,0.584));
#821=DIRECTION('',(0.0,0.0,1.0));
#822=DIRECTION('',(0.,1.,0.));
#823=FACE_OUTER_BOUND('',#824,.T.);
#824=EDGE_LOOP('',(#825,#835,#845,#855));
#825=ORIENTED_EDGE('',*,*,#601,.T.);
#835=ORIENTED_EDGE('',*,*,#650,.T.);
#845=ORIENTED_EDGE('',*,*,#699,.T.);
#855=ORIENTED_EDGE('',*,*,#748,.T.);
ENDSEC;
END-ISO-10303-21;
