ISO-10303-21;
HEADER;
FILE_DESCRIPTION( ( '' ), ' ' );
FILE_NAME( '/vol/tmp/translate-9100281486299713287/59edbc5e9c0ba50f4877f2db.step', '2017-10-23T09:54:38', ( '' ), ( '' ), ' ', ' ', ' ' );
FILE_SCHEMA( ( 'AUTOMOTIVE_DESIGN { 1 0 10303 214 1 1 1 1 }' ) );
ENDSEC;
DATA;
#1 = MECHANICAL_DESIGN_GEOMETRIC_PRESENTATION_REPRESENTATION( ' ', ( #10, #11, #12, #13, #14, #15, #16, #17, #18, #19, #20, #21, #22, #23, #24, #25, #26, #27, #28, #29, #30, #31, #32, #33, #34 ), #6 );
#2 = PRODUCT_DEFINITION_CONTEXT( '', #35, 'design' );
#3 = APPLICATION_PROTOCOL_DEFINITION( 'international standard', 'automotive_design', 2001, #35 );
#4 = PRODUCT_CATEGORY_RELATIONSHIP( 'NONE', 'NONE', #36, #37 );
#5 = SHAPE_DEFINITION_REPRESENTATION( #38, #39 );
#6 =  ( GEOMETRIC_REPRESENTATION_CONTEXT( 3 )GLOBAL_UNCERTAINTY_ASSIGNED_CONTEXT( ( #42 ) )GLOBAL_UNIT_ASSIGNED_CONTEXT( ( #44, #45, #46 ) )REPRESENTATION_CONTEXT( 'NONE', 'WORKSPACE' ) );
#10 = STYLED_ITEM( '', ( #48 ), #49 );
#11 = STYLED_ITEM( '', ( #50 ), #51 );
#12 = STYLED_ITEM( '', ( #52 ), #53 );
#13 = STYLED_ITEM( '', ( #54 ), #55 );
#14 = STYLED_ITEM( '', ( #56 ), #57 );
#15 = STYLED_ITEM( '', ( #58 ), #59 );
#16 = STYLED_ITEM( '', ( #60 ), #61 );
#17 = STYLED_ITEM( '', ( #62 ), #63 );
#18 = STYLED_ITEM( '', ( #64 ), #65 );
#19 = STYLED_ITEM( '', ( #66 ), #67 );
#20 = STYLED_ITEM( '', ( #68 ), #69 );
#21 = STYLED_ITEM( '', ( #70 ), #71 );
#22 = STYLED_ITEM( '', ( #72 ), #73 );
#23 = STYLED_ITEM( '', ( #74 ), #75 );
#24 = STYLED_ITEM( '', ( #76 ), #77 );
#25 = STYLED_ITEM( '', ( #78 ), #79 );
#26 = STYLED_ITEM( '', ( #80 ), #81 );
#27 = STYLED_ITEM( '', ( #82 ), #83 );
#28 = STYLED_ITEM( '', ( #84 ), #85 );
#29 = STYLED_ITEM( '', ( #86 ), #87 );
#30 = STYLED_ITEM( '', ( #88 ), #89 );
#31 = STYLED_ITEM( '', ( #90 ), #91 );
#32 = STYLED_ITEM( '', ( #92 ), #93 );
#33 = STYLED_ITEM( '', ( #94 ), #95 );
#34 = STYLED_ITEM( '', ( #96 ), #97 );
#35 = APPLICATION_CONTEXT( 'core data for automotive mechanical design processes' );
#36 = PRODUCT_CATEGORY( 'part', 'NONE' );
#37 = PRODUCT_RELATED_PRODUCT_CATEGORY( 'detail', ' ', ( #98 ) );
#38 = PRODUCT_DEFINITION_SHAPE( 'NONE', 'NONE', #99 );
#39 = ADVANCED_BREP_SHAPE_REPRESENTATION( 'Open CASCADE STEP translator 6.8 1', ( #100, #101 ), #6 );
#42 = UNCERTAINTY_MEASURE_WITH_UNIT( LENGTH_MEASURE( 1.00000000000000E-06 ), #44, '', '' );
#44 =  ( CONVERSION_BASED_UNIT( 'METRE', #104 )LENGTH_UNIT(  )NAMED_UNIT( #107 ) );
#45 =  ( NAMED_UNIT( #109 )PLANE_ANGLE_UNIT(  )SI_UNIT( $, .RADIAN. ) );
#46 =  ( NAMED_UNIT( #109 )SI_UNIT( $, .STERADIAN. )SOLID_ANGLE_UNIT(  ) );
#48 = PRESENTATION_STYLE_ASSIGNMENT( ( #115 ) );
#49 = ADVANCED_FACE( '', ( #116, #117 ), #118, .T. );
#50 = PRESENTATION_STYLE_ASSIGNMENT( ( #119 ) );
#51 = ADVANCED_FACE( '', ( #120, #121 ), #122, .T. );
#52 = PRESENTATION_STYLE_ASSIGNMENT( ( #123 ) );
#53 = ADVANCED_FACE( '', ( #124 ), #125, .T. );
#54 = PRESENTATION_STYLE_ASSIGNMENT( ( #126 ) );
#55 = EDGE_CURVE( '', #127, #127, #128, .T. );
#56 = PRESENTATION_STYLE_ASSIGNMENT( ( #129 ) );
#57 = EDGE_CURVE( '', #130, #130, #131, .T. );
#58 = PRESENTATION_STYLE_ASSIGNMENT( ( #132 ) );
#59 = ADVANCED_FACE( '', ( #133, #134 ), #135, .T. );
#60 = PRESENTATION_STYLE_ASSIGNMENT( ( #136 ) );
#61 = EDGE_CURVE( '', #137, #137, #138, .T. );
#62 = PRESENTATION_STYLE_ASSIGNMENT( ( #139 ) );
#63 = ADVANCED_FACE( '', ( #140, #141 ), #142, .T. );
#64 = PRESENTATION_STYLE_ASSIGNMENT( ( #143 ) );
#65 = EDGE_CURVE( '', #144, #144, #145, .T. );
#66 = PRESENTATION_STYLE_ASSIGNMENT( ( #146 ) );
#67 = EDGE_CURVE( '', #147, #147, #148, .T. );
#68 = PRESENTATION_STYLE_ASSIGNMENT( ( #149 ) );
#69 = EDGE_CURVE( '', #150, #150, #151, .T. );
#70 = PRESENTATION_STYLE_ASSIGNMENT( ( #152 ) );
#71 = EDGE_CURVE( '', #153, #153, #154, .T. );
#72 = PRESENTATION_STYLE_ASSIGNMENT( ( #155 ) );
#73 = EDGE_CURVE( '', #156, #156, #157, .T. );
#74 = PRESENTATION_STYLE_ASSIGNMENT( ( #158 ) );
#75 = ADVANCED_FACE( '', ( #159, #160 ), #161, .T. );
#76 = PRESENTATION_STYLE_ASSIGNMENT( ( #162 ) );
#77 = EDGE_CURVE( '', #163, #163, #164, .T. );
#78 = PRESENTATION_STYLE_ASSIGNMENT( ( #165 ) );
#79 = ADVANCED_FACE( '', ( #166 ), #167, .T. );
#80 = PRESENTATION_STYLE_ASSIGNMENT( ( #168 ) );
#81 = ADVANCED_FACE( '', ( #169 ), #170, .T. );
#82 = PRESENTATION_STYLE_ASSIGNMENT( ( #171 ) );
#83 = EDGE_CURVE( '', #172, #172, #173, .T. );
#84 = PRESENTATION_STYLE_ASSIGNMENT( ( #174 ) );
#85 = ADVANCED_FACE( '', ( #175, #176 ), #177, .T. );
#86 = PRESENTATION_STYLE_ASSIGNMENT( ( #178 ) );
#87 = ADVANCED_FACE( '', ( #179, #180 ), #181, .F. );
#88 = PRESENTATION_STYLE_ASSIGNMENT( ( #182 ) );
#89 = EDGE_CURVE( '', #183, #183, #184, .T. );
#90 = PRESENTATION_STYLE_ASSIGNMENT( ( #185 ) );
#91 = ADVANCED_FACE( '', ( #186, #187 ), #188, .T. );
#92 = PRESENTATION_STYLE_ASSIGNMENT( ( #189 ) );
#93 = EDGE_CURVE( '', #190, #190, #191, .T. );
#94 = PRESENTATION_STYLE_ASSIGNMENT( ( #192 ) );
#95 = ADVANCED_FACE( '', ( #193, #194 ), #195, .T. );
#96 = PRESENTATION_STYLE_ASSIGNMENT( ( #196 ) );
#97 = ADVANCED_FACE( '', ( #197, #198, #199 ), #200, .F. );
#98 = PRODUCT( 'Open CASCADE STEP translator 6.8 1', 'Open CASCADE STEP translator 6.8 1', 'PART-Open CASCADE STEP translator 6.8 1-DESC', ( #201 ) );
#99 = PRODUCT_DEFINITION( 'NONE', 'NONE', #202, #2 );
#100 = MANIFOLD_SOLID_BREP( 'Open CASCADE STEP translator 6.8 1', #203 );
#101 = AXIS2_PLACEMENT_3D( '', #204, #205, #206 );
#104 = LENGTH_MEASURE_WITH_UNIT( LENGTH_MEASURE( 1.00000000000000 ), #207 );
#107 = DIMENSIONAL_EXPONENTS( 1.00000000000000, 0.00000000000000, 0.00000000000000, 0.00000000000000, 0.00000000000000, 0.00000000000000, 0.00000000000000 );
#109 = DIMENSIONAL_EXPONENTS( 0.00000000000000, 0.00000000000000, 0.00000000000000, 0.00000000000000, 0.00000000000000, 0.00000000000000, 0.00000000000000 );
#115 = SURFACE_STYLE_USAGE( .BOTH., #208 );
#116 = FACE_OUTER_BOUND( '', #209, .T. );
#117 = FACE_OUTER_BOUND( '', #210, .T. );
#118 = TOROIDAL_SURFACE( '', #211, 0.00230000000000000, 0.000200000000000000 );
#119 = SURFACE_STYLE_USAGE( .BOTH., #212 );
#120 = FACE_OUTER_BOUND( '', #213, .T. );
#121 = FACE_OUTER_BOUND( '', #214, .T. );
#122 = CYLINDRICAL_SURFACE( '', #215, 0.000150000000000000 );
#123 = SURFACE_STYLE_USAGE( .BOTH., #216 );
#124 = FACE_OUTER_BOUND( '', #217, .T. );
#125 = PLANE( '', #218 );
#126 = CURVE_STYLE( '', #219, POSITIVE_LENGTH_MEASURE( 1.00000000000000E-06 ), #220 );
#127 = VERTEX_POINT( '', #221 );
#128 = CIRCLE( '', #222, 0.000150000000000000 );
#129 = CURVE_STYLE( '', #223, POSITIVE_LENGTH_MEASURE( 1.00000000000000E-06 ), #224 );
#130 = VERTEX_POINT( '', #225 );
#131 = CIRCLE( '', #226, 0.00238000000000000 );
#132 = SURFACE_STYLE_USAGE( .BOTH., #227 );
#133 = FACE_OUTER_BOUND( '', #228, .T. );
#134 = FACE_OUTER_BOUND( '', #229, .T. );
#135 = TOROIDAL_SURFACE( '', #230, 0.00230000000000000, 0.000200000000000000 );
#136 = CURVE_STYLE( '', #231, POSITIVE_LENGTH_MEASURE( 1.00000000000000E-06 ), #232 );
#137 = VERTEX_POINT( '', #233 );
#138 = CIRCLE( '', #234, 0.00250000000000000 );
#139 = SURFACE_STYLE_USAGE( .BOTH., #235 );
#140 = FACE_OUTER_BOUND( '', #236, .T. );
#141 = FACE_OUTER_BOUND( '', #237, .T. );
#142 = TOROIDAL_SURFACE( '', #238, 0.00230000000000000, 0.000200000000000000 );
#143 = CURVE_STYLE( '', #239, POSITIVE_LENGTH_MEASURE( 1.00000000000000E-06 ), #240 );
#144 = VERTEX_POINT( '', #241 );
#145 = CIRCLE( '', #242, 0.000150000000000000 );
#146 = CURVE_STYLE( '', #243, POSITIVE_LENGTH_MEASURE( 1.00000000000000E-06 ), #244 );
#147 = VERTEX_POINT( '', #245 );
#148 = CIRCLE( '', #246, 0.00250000000000000 );
#149 = CURVE_STYLE( '', #247, POSITIVE_LENGTH_MEASURE( 1.00000000000000E-06 ), #248 );
#150 = VERTEX_POINT( '', #249 );
#151 = CIRCLE( '', #250, 0.00250000000000000 );
#152 = CURVE_STYLE( '', #251, POSITIVE_LENGTH_MEASURE( 1.00000000000000E-06 ), #252 );
#153 = VERTEX_POINT( '', #253 );
#154 = CIRCLE( '', #254, 0.000150000000000000 );
#155 = CURVE_STYLE( '', #255, POSITIVE_LENGTH_MEASURE( 1.00000000000000E-06 ), #256 );
#156 = VERTEX_POINT( '', #257 );
#157 = CIRCLE( '', #258, 0.00230000000000000 );
#158 = SURFACE_STYLE_USAGE( .BOTH., #259 );
#159 = FACE_OUTER_BOUND( '', #260, .T. );
#160 = FACE_OUTER_BOUND( '', #261, .T. );
#161 = TOROIDAL_SURFACE( '', #262, 0.00230000000000000, 0.000200000000000000 );
#162 = CURVE_STYLE( '', #263, POSITIVE_LENGTH_MEASURE( 1.00000000000000E-06 ), #264 );
#163 = VERTEX_POINT( '', #265 );
#164 = CIRCLE( '', #266, 0.000150000000000000 );
#165 = SURFACE_STYLE_USAGE( .BOTH., #267 );
#166 = FACE_OUTER_BOUND( '', #268, .T. );
#167 = PLANE( '', #269 );
#168 = SURFACE_STYLE_USAGE( .BOTH., #270 );
#169 = FACE_OUTER_BOUND( '', #271, .T. );
#170 = PLANE( '', #272 );
#171 = CURVE_STYLE( '', #273, POSITIVE_LENGTH_MEASURE( 1.00000000000000E-06 ), #274 );
#172 = VERTEX_POINT( '', #275 );
#173 = CIRCLE( '', #276, 0.00238000000000000 );
#174 = SURFACE_STYLE_USAGE( .BOTH., #277 );
#175 = FACE_OUTER_BOUND( '', #278, .T. );
#176 = FACE_OUTER_BOUND( '', #279, .T. );
#177 = CYLINDRICAL_SURFACE( '', #280, 0.00250000000000000 );
#178 = SURFACE_STYLE_USAGE( .BOTH., #281 );
#179 = FACE_OUTER_BOUND( '', #282, .T. );
#180 = FACE_OUTER_BOUND( '', #283, .T. );
#181 = TOROIDAL_SURFACE( '', #284, 0.00250000000000000, 0.000300000000000000 );
#182 = CURVE_STYLE( '', #285, POSITIVE_LENGTH_MEASURE( 1.00000000000000E-06 ), #286 );
#183 = VERTEX_POINT( '', #287 );
#184 = CIRCLE( '', #288, 0.00250000000000000 );
#185 = SURFACE_STYLE_USAGE( .BOTH., #289 );
#186 = FACE_OUTER_BOUND( '', #290, .T. );
#187 = FACE_OUTER_BOUND( '', #291, .T. );
#188 = CYLINDRICAL_SURFACE( '', #292, 0.00250000000000000 );
#189 = CURVE_STYLE( '', #293, POSITIVE_LENGTH_MEASURE( 1.00000000000000E-06 ), #294 );
#190 = VERTEX_POINT( '', #295 );
#191 = CIRCLE( '', #296, 0.00230000000000000 );
#192 = SURFACE_STYLE_USAGE( .BOTH., #297 );
#193 = FACE_OUTER_BOUND( '', #298, .T. );
#194 = FACE_OUTER_BOUND( '', #299, .T. );
#195 = CYLINDRICAL_SURFACE( '', #300, 0.000150000000000000 );
#196 = SURFACE_STYLE_USAGE( .BOTH., #301 );
#197 = FACE_OUTER_BOUND( '', #302, .T. );
#198 = FACE_BOUND( '', #303, .T. );
#199 = FACE_BOUND( '', #304, .T. );
#200 = PLANE( '', #305 );
#201 = PRODUCT_CONTEXT( '', #35, 'mechanical' );
#202 = PRODUCT_DEFINITION_FORMATION_WITH_SPECIFIED_SOURCE( ' ', 'NONE', #98, .NOT_KNOWN. );
#203 = CLOSED_SHELL( '', ( #49, #91, #95, #59, #85, #87, #75, #97, #51, #79, #53, #81, #63 ) );
#204 = CARTESIAN_POINT( '', ( 0.00000000000000, 0.00000000000000, 0.00000000000000 ) );
#205 = DIRECTION( '', ( 0.00000000000000, 0.00000000000000, 1.00000000000000 ) );
#206 = DIRECTION( '', ( 1.00000000000000, 0.00000000000000, 0.00000000000000 ) );
#207 =  ( LENGTH_UNIT(  )NAMED_UNIT( #107 )SI_UNIT( $, .METRE. ) );
#208 = SURFACE_SIDE_STYLE( '', ( #307 ) );
#209 = EDGE_LOOP( '', ( #308 ) );
#210 = EDGE_LOOP( '', ( #309 ) );
#211 = AXIS2_PLACEMENT_3D( '', #310, #311, #312 );
#212 = SURFACE_SIDE_STYLE( '', ( #313 ) );
#213 = EDGE_LOOP( '', ( #314 ) );
#214 = EDGE_LOOP( '', ( #315 ) );
#215 = AXIS2_PLACEMENT_3D( '', #316, #317, #318 );
#216 = SURFACE_SIDE_STYLE( '', ( #319 ) );
#217 = EDGE_LOOP( '', ( #320 ) );
#218 = AXIS2_PLACEMENT_3D( '', #321, #322, #323 );
#219 = DRAUGHTING_PRE_DEFINED_CURVE_FONT( 'continuous' );
#220 = COLOUR_RGB( '', 0.00000000000000, 0.00000000000000, 0.00000000000000 );
#221 = CARTESIAN_POINT( '', ( 0.00100000000001000, 0.000148160999999998, -0.0189889930000200 ) );
#222 = AXIS2_PLACEMENT_3D( '', #324, #325, #326 );
#223 = DRAUGHTING_PRE_DEFINED_CURVE_FONT( 'continuous' );
#224 = COLOUR_RGB( '', 0.00000000000000, 0.00000000000000, 0.00000000000000 );
#225 = CARTESIAN_POINT( '', ( 0.00000000000000, -0.00238183900002000, 0.000736052458323000 ) );
#226 = AXIS2_PLACEMENT_3D( '', #327, #328, #329 );
#227 = SURFACE_SIDE_STYLE( '', ( #330 ) );
#228 = EDGE_LOOP( '', ( #331 ) );
#229 = EDGE_LOOP( '', ( #332 ) );
#230 = AXIS2_PLACEMENT_3D( '', #333, #334, #335 );
#231 = DRAUGHTING_PRE_DEFINED_CURVE_FONT( 'continuous' );
#232 = COLOUR_RGB( '', 0.00000000000000, 0.00000000000000, 0.00000000000000 );
#233 = CARTESIAN_POINT( '', ( 0.00000000000000, -0.00250183900002000, 0.00831100700002000 ) );
#234 = AXIS2_PLACEMENT_3D( '', #336, #337, #338 );
#235 = SURFACE_SIDE_STYLE( '', ( #339 ) );
#236 = EDGE_LOOP( '', ( #340 ) );
#237 = EDGE_LOOP( '', ( #341 ) );
#238 = AXIS2_PLACEMENT_3D( '', #342, #343, #344 );
#239 = DRAUGHTING_PRE_DEFINED_CURVE_FONT( 'continuous' );
#240 = COLOUR_RGB( '', 0.00000000000000, 0.00000000000000, 0.00000000000000 );
#241 = CARTESIAN_POINT( '', ( 0.00100000000001000, -0.000151839000020000, 1.10070000200000E-05 ) );
#242 = AXIS2_PLACEMENT_3D( '', #345, #346, #347 );
#243 = DRAUGHTING_PRE_DEFINED_CURVE_FONT( 'continuous' );
#244 = COLOUR_RGB( '', 0.00000000000000, 0.00000000000000, 0.00000000000000 );
#245 = CARTESIAN_POINT( '', ( 0.00000000000000, 0.00249816100000000, 0.00146926456949600 ) );
#246 = AXIS2_PLACEMENT_3D( '', #348, #349, #350 );
#247 = DRAUGHTING_PRE_DEFINED_CURVE_FONT( 'continuous' );
#248 = COLOUR_RGB( '', 0.00000000000000, 0.00000000000000, 0.00000000000000 );
#249 = CARTESIAN_POINT( '', ( 0.00000000000000, -0.00250183900002000, 0.000552749430524000 ) );
#250 = AXIS2_PLACEMENT_3D( '', #351, #352, #353 );
#251 = DRAUGHTING_PRE_DEFINED_CURVE_FONT( 'continuous' );
#252 = COLOUR_RGB( '', 0.00000000000000, 0.00000000000000, 0.00000000000000 );
#253 = CARTESIAN_POINT( '', ( -0.00100000000001000, 0.000148160999999998, -0.0149889930000200 ) );
#254 = AXIS2_PLACEMENT_3D( '', #354, #355, #356 );
#255 = DRAUGHTING_PRE_DEFINED_CURVE_FONT( 'continuous' );
#256 = COLOUR_RGB( '', 0.00000000000000, 0.00000000000000, 0.00000000000000 );
#257 = CARTESIAN_POINT( '', ( 0.00000000000000, -0.00230183900002000, 0.00851100700002000 ) );
#258 = AXIS2_PLACEMENT_3D( '', #357, #358, #359 );
#259 = SURFACE_SIDE_STYLE( '', ( #360 ) );
#260 = EDGE_LOOP( '', ( #361 ) );
#261 = EDGE_LOOP( '', ( #362 ) );
#262 = AXIS2_PLACEMENT_3D( '', #363, #364, #365 );
#263 = DRAUGHTING_PRE_DEFINED_CURVE_FONT( 'continuous' );
#264 = COLOUR_RGB( '', 0.00000000000000, 0.00000000000000, 0.00000000000000 );
#265 = CARTESIAN_POINT( '', ( -0.00100000000001000, -0.000151839000020000, 1.10070000200000E-05 ) );
#266 = AXIS2_PLACEMENT_3D( '', #366, #367, #368 );
#267 = SURFACE_SIDE_STYLE( '', ( #369 ) );
#268 = EDGE_LOOP( '', ( #370 ) );
#269 = AXIS2_PLACEMENT_3D( '', #371, #372, #373 );
#270 = SURFACE_SIDE_STYLE( '', ( #374 ) );
#271 = EDGE_LOOP( '', ( #375 ) );
#272 = AXIS2_PLACEMENT_3D( '', #376, #377, #378 );
#273 = DRAUGHTING_PRE_DEFINED_CURVE_FONT( 'continuous' );
#274 = COLOUR_RGB( '', 0.00000000000000, 0.00000000000000, 0.00000000000000 );
#275 = CARTESIAN_POINT( '', ( 0.00000000000000, 0.00237816100000000, 0.00128596154169700 ) );
#276 = AXIS2_PLACEMENT_3D( '', #379, #380, #381 );
#277 = SURFACE_SIDE_STYLE( '', ( #382 ) );
#278 = EDGE_LOOP( '', ( #383 ) );
#279 = EDGE_LOOP( '', ( #384 ) );
#280 = AXIS2_PLACEMENT_3D( '', #385, #386, #387 );
#281 = SURFACE_SIDE_STYLE( '', ( #388 ) );
#282 = EDGE_LOOP( '', ( #389 ) );
#283 = EDGE_LOOP( '', ( #390 ) );
#284 = AXIS2_PLACEMENT_3D( '', #391, #392, #393 );
#285 = DRAUGHTING_PRE_DEFINED_CURVE_FONT( 'continuous' );
#286 = COLOUR_RGB( '', 0.00000000000000, 0.00000000000000, 0.00000000000000 );
#287 = CARTESIAN_POINT( '', ( 0.00000000000000, -0.00250183900002000, 0.000211007000020000 ) );
#288 = AXIS2_PLACEMENT_3D( '', #394, #395, #396 );
#289 = SURFACE_SIDE_STYLE( '', ( #397 ) );
#290 = EDGE_LOOP( '', ( #398 ) );
#291 = EDGE_LOOP( '', ( #399 ) );
#292 = AXIS2_PLACEMENT_3D( '', #400, #401, #402 );
#293 = DRAUGHTING_PRE_DEFINED_CURVE_FONT( 'continuous' );
#294 = COLOUR_RGB( '', 0.00000000000000, 0.00000000000000, 0.00000000000000 );
#295 = CARTESIAN_POINT( '', ( 0.00000000000000, -0.00230183900002000, 1.10070000200003E-05 ) );
#296 = AXIS2_PLACEMENT_3D( '', #403, #404, #405 );
#297 = SURFACE_SIDE_STYLE( '', ( #406 ) );
#298 = EDGE_LOOP( '', ( #407 ) );
#299 = EDGE_LOOP( '', ( #408 ) );
#300 = AXIS2_PLACEMENT_3D( '', #409, #410, #411 );
#301 = SURFACE_SIDE_STYLE( '', ( #412 ) );
#302 = EDGE_LOOP( '', ( #413 ) );
#303 = EDGE_LOOP( '', ( #414 ) );
#304 = EDGE_LOOP( '', ( #415 ) );
#305 = AXIS2_PLACEMENT_3D( '', #416, #417, #418 );
#307 = SURFACE_STYLE_FILL_AREA( #419 );
#308 = ORIENTED_EDGE( '', *, *, #73, .F. );
#309 = ORIENTED_EDGE( '', *, *, #61, .F. );
#310 = CARTESIAN_POINT( '', ( 0.00000000000000, -1.83899999999900E-06, 0.00831100700000000 ) );
#311 = DIRECTION( '', ( 0.00000000000000, 1.11022302462500E-16, 1.00000000000000 ) );
#312 = DIRECTION( '', ( 0.00000000000000, -1.00000000000000, 1.11022302462500E-16 ) );
#313 = SURFACE_STYLE_FILL_AREA( #420 );
#314 = ORIENTED_EDGE( '', *, *, #65, .T. );
#315 = ORIENTED_EDGE( '', *, *, #55, .F. );
#316 = CARTESIAN_POINT( '', ( 0.00100000000000000, -1.83900000000200E-06, -0.0189889930000000 ) );
#317 = DIRECTION( '', ( -0.00000000000000, -1.11022302462500E-16, -1.00000000000000 ) );
#318 = DIRECTION( '', ( 0.00000000000000, -1.00000000000000, 1.11022302462500E-16 ) );
#319 = SURFACE_STYLE_FILL_AREA( #421 );
#320 = ORIENTED_EDGE( '', *, *, #71, .T. );
#321 = CARTESIAN_POINT( '', ( -0.00100000000000000, -1.83900000000200E-06, -0.0149889930000000 ) );
#322 = DIRECTION( '', ( 0.00000000000000, -1.11022302462500E-16, -1.00000000000000 ) );
#323 = DIRECTION( '', ( 0.00000000000000, -1.00000000000000, 1.11022302462500E-16 ) );
#324 = CARTESIAN_POINT( '', ( 0.00100000000001000, -1.83900001000200E-06, -0.0189889930000100 ) );
#325 = DIRECTION( '', ( 0.00000000000000, 0.00000000000000, -1.00000000000000 ) );
#326 = DIRECTION( '', ( 0.00000000000000, 1.00000000000000, 0.00000000000000 ) );
#327 = CARTESIAN_POINT( '', ( 0.00000000000000, -1.83900001000000E-06, 0.000736052458313000 ) );
#328 = DIRECTION( '', ( 0.00000000000000, 0.00000000000000, 1.00000000000000 ) );
#329 = DIRECTION( '', ( 0.00000000000000, -1.00000000000000, 0.00000000000000 ) );
#330 = SURFACE_STYLE_FILL_AREA( #422 );
#331 = ORIENTED_EDGE( '', *, *, #89, .F. );
#332 = ORIENTED_EDGE( '', *, *, #93, .F. );
#333 = CARTESIAN_POINT( '', ( 0.00000000000000, -1.83900000000000E-06, 0.000211007000000000 ) );
#334 = DIRECTION( '', ( 0.00000000000000, 1.11022302462500E-16, 1.00000000000000 ) );
#335 = DIRECTION( '', ( 0.00000000000000, -1.00000000000000, 1.11022302462500E-16 ) );
#336 = CARTESIAN_POINT( '', ( 0.00000000000000, -1.83900000999900E-06, 0.00831100700001000 ) );
#337 = DIRECTION( '', ( 0.00000000000000, 0.00000000000000, -1.00000000000000 ) );
#338 = DIRECTION( '', ( 0.00000000000000, -1.00000000000000, 0.00000000000000 ) );
#339 = SURFACE_STYLE_FILL_AREA( #423 );
#340 = ORIENTED_EDGE( '', *, *, #83, .F. );
#341 = ORIENTED_EDGE( '', *, *, #67, .F. );
#342 = CARTESIAN_POINT( '', ( 0.00000000000000, -1.83900000000000E-06, 0.00146926456949600 ) );
#343 = DIRECTION( '', ( 0.00000000000000, -1.11022302462500E-16, -1.00000000000000 ) );
#344 = DIRECTION( '', ( 0.00000000000000, 1.00000000000000, -1.11022302462500E-16 ) );
#345 = CARTESIAN_POINT( '', ( 0.00100000000001000, -1.83900001000000E-06, 1.10070000100000E-05 ) );
#346 = DIRECTION( '', ( 0.00000000000000, 0.00000000000000, -1.00000000000000 ) );
#347 = DIRECTION( '', ( 0.00000000000000, -1.00000000000000, 0.00000000000000 ) );
#348 = CARTESIAN_POINT( '', ( 0.00000000000000, -1.83900001000000E-06, 0.00146926456950600 ) );
#349 = DIRECTION( '', ( 0.00000000000000, 0.00000000000000, 1.00000000000000 ) );
#350 = DIRECTION( '', ( 0.00000000000000, 1.00000000000000, 0.00000000000000 ) );
#351 = CARTESIAN_POINT( '', ( 0.00000000000000, -1.83900001000000E-06, 0.000552749430514000 ) );
#352 = DIRECTION( '', ( 0.00000000000000, 0.00000000000000, -1.00000000000000 ) );
#353 = DIRECTION( '', ( 0.00000000000000, -1.00000000000000, 0.00000000000000 ) );
#354 = CARTESIAN_POINT( '', ( -0.00100000000001000, -1.83900001000200E-06, -0.0149889930000100 ) );
#355 = DIRECTION( '', ( 0.00000000000000, 0.00000000000000, -1.00000000000000 ) );
#356 = DIRECTION( '', ( 0.00000000000000, 1.00000000000000, 0.00000000000000 ) );
#357 = CARTESIAN_POINT( '', ( 0.00000000000000, -1.83900000999900E-06, 0.00851100700001000 ) );
#358 = DIRECTION( '', ( 0.00000000000000, 0.00000000000000, 1.00000000000000 ) );
#359 = DIRECTION( '', ( 0.00000000000000, -1.00000000000000, 0.00000000000000 ) );
#360 = SURFACE_STYLE_FILL_AREA( #424 );
#361 = ORIENTED_EDGE( '', *, *, #57, .F. );
#362 = ORIENTED_EDGE( '', *, *, #69, .F. );
#363 = CARTESIAN_POINT( '', ( 0.00000000000000, -1.83900000000000E-06, 0.000552749430504000 ) );
#364 = DIRECTION( '', ( 0.00000000000000, 1.11022302462500E-16, 1.00000000000000 ) );
#365 = DIRECTION( '', ( 0.00000000000000, -1.00000000000000, 1.11022302462500E-16 ) );
#366 = CARTESIAN_POINT( '', ( -0.00100000000001000, -1.83900001000000E-06, 1.10070000100000E-05 ) );
#367 = DIRECTION( '', ( 0.00000000000000, 0.00000000000000, -1.00000000000000 ) );
#368 = DIRECTION( '', ( 0.00000000000000, -1.00000000000000, 0.00000000000000 ) );
#369 = SURFACE_STYLE_FILL_AREA( #425 );
#370 = ORIENTED_EDGE( '', *, *, #55, .T. );
#371 = CARTESIAN_POINT( '', ( 0.00100000000000000, -1.83900000000200E-06, -0.0189889930000000 ) );
#372 = DIRECTION( '', ( 0.00000000000000, -1.11022302462500E-16, -1.00000000000000 ) );
#373 = DIRECTION( '', ( 0.00000000000000, -1.00000000000000, 1.11022302462500E-16 ) );
#374 = SURFACE_STYLE_FILL_AREA( #426 );
#375 = ORIENTED_EDGE( '', *, *, #73, .T. );
#376 = CARTESIAN_POINT( '', ( 0.00000000000000, -1.83899999999900E-06, 0.00851100700000000 ) );
#377 = DIRECTION( '', ( -0.00000000000000, 1.11022302462500E-16, 1.00000000000000 ) );
#378 = DIRECTION( '', ( 1.00000000000000, 0.00000000000000, 0.00000000000000 ) );
#379 = CARTESIAN_POINT( '', ( 0.00000000000000, -1.83900001000000E-06, 0.00128596154170700 ) );
#380 = DIRECTION( '', ( 0.00000000000000, 0.00000000000000, -1.00000000000000 ) );
#381 = DIRECTION( '', ( 0.00000000000000, 1.00000000000000, 0.00000000000000 ) );
#382 = SURFACE_STYLE_FILL_AREA( #427 );
#383 = ORIENTED_EDGE( '', *, *, #89, .T. );
#384 = ORIENTED_EDGE( '', *, *, #69, .T. );
#385 = CARTESIAN_POINT( '', ( 0.00000000000000, -1.83899999999900E-06, 0.00851100700000000 ) );
#386 = DIRECTION( '', ( -0.00000000000000, 1.11022302462500E-16, 1.00000000000000 ) );
#387 = DIRECTION( '', ( 0.00000000000000, 1.00000000000000, -1.11022302462500E-16 ) );
#388 = SURFACE_STYLE_FILL_AREA( #428 );
#389 = ORIENTED_EDGE( '', *, *, #57, .T. );
#390 = ORIENTED_EDGE( '', *, *, #83, .T. );
#391 = CARTESIAN_POINT( '', ( 0.00000000000000, -1.83900000000000E-06, 0.00101100700000000 ) );
#392 = DIRECTION( '', ( 0.00000000000000, 1.11022302462500E-16, 1.00000000000000 ) );
#393 = DIRECTION( '', ( 0.00000000000000, -1.00000000000000, 1.11022302462500E-16 ) );
#394 = CARTESIAN_POINT( '', ( 0.00000000000000, -1.83900001000000E-06, 0.000211007000010000 ) );
#395 = DIRECTION( '', ( 0.00000000000000, 0.00000000000000, 1.00000000000000 ) );
#396 = DIRECTION( '', ( 0.00000000000000, -1.00000000000000, 0.00000000000000 ) );
#397 = SURFACE_STYLE_FILL_AREA( #429 );
#398 = ORIENTED_EDGE( '', *, *, #67, .T. );
#399 = ORIENTED_EDGE( '', *, *, #61, .T. );
#400 = CARTESIAN_POINT( '', ( 0.00000000000000, -1.83899999999900E-06, 0.00851100700000000 ) );
#401 = DIRECTION( '', ( -0.00000000000000, 1.11022302462500E-16, 1.00000000000000 ) );
#402 = DIRECTION( '', ( 0.00000000000000, 1.00000000000000, -1.11022302462500E-16 ) );
#403 = CARTESIAN_POINT( '', ( 0.00000000000000, -1.83900001000000E-06, 1.10070000100000E-05 ) );
#404 = DIRECTION( '', ( 0.00000000000000, 0.00000000000000, -1.00000000000000 ) );
#405 = DIRECTION( '', ( 0.00000000000000, -1.00000000000000, 0.00000000000000 ) );
#406 = SURFACE_STYLE_FILL_AREA( #430 );
#407 = ORIENTED_EDGE( '', *, *, #77, .T. );
#408 = ORIENTED_EDGE( '', *, *, #71, .F. );
#409 = CARTESIAN_POINT( '', ( -0.00100000000000000, -1.83900000000200E-06, -0.0149889930000000 ) );
#410 = DIRECTION( '', ( -0.00000000000000, -1.11022302462500E-16, -1.00000000000000 ) );
#411 = DIRECTION( '', ( 0.00000000000000, -1.00000000000000, 1.11022302462500E-16 ) );
#412 = SURFACE_STYLE_FILL_AREA( #431 );
#413 = ORIENTED_EDGE( '', *, *, #93, .T. );
#414 = ORIENTED_EDGE( '', *, *, #77, .F. );
#415 = ORIENTED_EDGE( '', *, *, #65, .F. );
#416 = CARTESIAN_POINT( '', ( 0.00000000000000, -1.83900000000000E-06, 1.10070000000000E-05 ) );
#417 = DIRECTION( '', ( -0.00000000000000, 1.11022302462500E-16, 1.00000000000000 ) );
#418 = DIRECTION( '', ( 1.00000000000000, 0.00000000000000, 0.00000000000000 ) );
#419 = FILL_AREA_STYLE( '', ( #432 ) );
#420 = FILL_AREA_STYLE( '', ( #433 ) );
#421 = FILL_AREA_STYLE( '', ( #434 ) );
#422 = FILL_AREA_STYLE( '', ( #435 ) );
#423 = FILL_AREA_STYLE( '', ( #436 ) );
#424 = FILL_AREA_STYLE( '', ( #437 ) );
#425 = FILL_AREA_STYLE( '', ( #438 ) );
#426 = FILL_AREA_STYLE( '', ( #439 ) );
#427 = FILL_AREA_STYLE( '', ( #440 ) );
#428 = FILL_AREA_STYLE( '', ( #441 ) );
#429 = FILL_AREA_STYLE( '', ( #442 ) );
#430 = FILL_AREA_STYLE( '', ( #443 ) );
#431 = FILL_AREA_STYLE( '', ( #444 ) );
#432 = FILL_AREA_STYLE_COLOUR( '', #445 );
#433 = FILL_AREA_STYLE_COLOUR( '', #446 );
#434 = FILL_AREA_STYLE_COLOUR( '', #447 );
#435 = FILL_AREA_STYLE_COLOUR( '', #448 );
#436 = FILL_AREA_STYLE_COLOUR( '', #449 );
#437 = FILL_AREA_STYLE_COLOUR( '', #450 );
#438 = FILL_AREA_STYLE_COLOUR( '', #451 );
#439 = FILL_AREA_STYLE_COLOUR( '', #452 );
#440 = FILL_AREA_STYLE_COLOUR( '', #453 );
#441 = FILL_AREA_STYLE_COLOUR( '', #454 );
#442 = FILL_AREA_STYLE_COLOUR( '', #455 );
#443 = FILL_AREA_STYLE_COLOUR( '', #456 );
#444 = FILL_AREA_STYLE_COLOUR( '', #457 );
#445 = COLOUR_RGB( '', 0.00000000000000, 0.00000000000000, 0.00000000000000 );
#446 = COLOUR_RGB( '', 0.00000000000000, 0.00000000000000, 0.00000000000000 );
#447 = COLOUR_RGB( '', 0.00000000000000, 0.00000000000000, 0.00000000000000 );
#448 = COLOUR_RGB( '', 0.00000000000000, 0.00000000000000, 0.00000000000000 );
#449 = COLOUR_RGB( '', 0.00000000000000, 0.00000000000000, 0.00000000000000 );
#450 = COLOUR_RGB( '', 0.00000000000000, 0.00000000000000, 0.00000000000000 );
#451 = COLOUR_RGB( '', 0.00000000000000, 0.00000000000000, 0.00000000000000 );
#452 = COLOUR_RGB( '', 0.00000000000000, 0.00000000000000, 0.00000000000000 );
#453 = COLOUR_RGB( '', 0.00000000000000, 0.00000000000000, 0.00000000000000 );
#454 = COLOUR_RGB( '', 0.00000000000000, 0.00000000000000, 0.00000000000000 );
#455 = COLOUR_RGB( '', 0.00000000000000, 0.00000000000000, 0.00000000000000 );
#456 = COLOUR_RGB( '', 0.00000000000000, 0.00000000000000, 0.00000000000000 );
#457 = COLOUR_RGB( '', 0.00000000000000, 0.00000000000000, 0.00000000000000 );
ENDSEC;
END-ISO-10303-21;
