ISO-10303-21;
HEADER;
/* R_Axial_DIN0309_L9.0mm_D3.2mm_P12.70mm_Horizontal.step 3D STEP model for use in ECAD systems
 * Copyright (C) 2017, kicad StepUp
 * 
 * This work is licensed under the [Creative Commons CC-BY-SA 4.0 License](https://creativecommons.org/licenses/by-sa/4.0/legalcode), 
 * with the following exception:
 * To the extent that the creation of electronic designs that use 'Licensed Material' can be considered to be 'Adapted Material', 
 * then the copyright holder waives article 3 of the license with respect to these designs and any generated files which use data provided 
 * as part of the 'Licensed Material'.
 * You are free to use the library data in your own projects without the obligation to share your project files under this or any other license agreement.
 * However, if you wish to redistribute these libraries, or parts thereof (including in modified form) as a collection then the exception above does not apply. 
 * Please refer to https://github.com/KiCad/kicad-packages3D/blob/master/LICENSE.md for further clarification of the exception.
 * Disclaimer of Warranties and Limitation of Liability.
 * These libraries are provided in the hope that they will be useful, but are provided without warranty of any kind, express or implied.
 * *USE 3D CAD DATA AT YOUR OWN RISK*
 * *DO NOT RELY UPON ANY INFORMATION FOUND HERE WITHOUT INDEPENDENT VERIFICATION.*
 * 
 */

FILE_DESCRIPTION(
/* description */ ('model of R_Axial_DIN0309_L9.0mm_D3.2mm_P12.70mm_Horizontal'),
/* implementation_level */ '2;1');

FILE_NAME(
/* name */ 'R_Axial_DIN0309_L9.0mm_D3.2mm_P12.70mm_Horizontal.step',
/* time_stamp */ '2017-12-04T10:19:13',
/* author */ ('kicad StepUp','ksu'),
/* organization */ ('FreeCAD'),
/* preprocessor_version */ 'OCC',
/* originating_system */ 'kicad StepUp',
/* authorisation */ '');

FILE_SCHEMA(('AUTOMOTIVE_DESIGN_CC2 { 1 2 10303 214 -1 1 5 4 }'));
ENDSEC;

DATA;
#1 = APPLICATION_PROTOCOL_DEFINITION('committee draft',
'automotive_design',1997,#2);
#2 = APPLICATION_CONTEXT(
'core data for automotive mechanical design processes');
#3 = SHAPE_DEFINITION_REPRESENTATION(#4,#10);
#4 = PRODUCT_DEFINITION_SHAPE('','',#5);
#5 = PRODUCT_DEFINITION('design','',#6,#9);
#6 = PRODUCT_DEFINITION_FORMATION('','',#7);
#7 = PRODUCT('R_Axial_DIN0309_L90mm_D32mm_P1270mm_Horizontal',
'R_Axial_DIN0309_L90mm_D32mm_P1270mm_Horizontal','',(#8));
#8 = MECHANICAL_CONTEXT('',#2,'mechanical');
#9 = PRODUCT_DEFINITION_CONTEXT('part definition',#2,'design');
#10 = ADVANCED_BREP_SHAPE_REPRESENTATION('',(#11,#15),#402);
#11 = AXIS2_PLACEMENT_3D('',#12,#13,#14);
#12 = CARTESIAN_POINT('',(0.E+000,0.E+000,0.E+000));
#13 = DIRECTION('',(0.E+000,0.E+000,1.));
#14 = DIRECTION('',(1.,0.E+000,-0.E+000));
#15 = MANIFOLD_SOLID_BREP('',#16);
#16 = CLOSED_SHELL('',(#17,#50,#76,#96,#116,#141,#166,#186,#212,#237,
#262,#288,#297,#317,#342,#368,#393));
#17 = ADVANCED_FACE('',(#18),#45,.T.);
#18 = FACE_BOUND('',#19,.F.);
#19 = EDGE_LOOP('',(#20,#30,#37,#38));
#20 = ORIENTED_EDGE('',*,*,#21,.T.);
#21 = EDGE_CURVE('',#22,#24,#26,.T.);
#22 = VERTEX_POINT('',#23);
#23 = CARTESIAN_POINT('',(2.65,1.6,1.6));
#24 = VERTEX_POINT('',#25);
#25 = CARTESIAN_POINT('',(4.1,1.6,1.6));
#26 = LINE('',#27,#28);
#27 = CARTESIAN_POINT('',(1.85,1.6,1.6));
#28 = VECTOR('',#29,1.);
#29 = DIRECTION('',(1.,0.E+000,0.E+000));
#30 = ORIENTED_EDGE('',*,*,#31,.T.);
#31 = EDGE_CURVE('',#24,#24,#32,.T.);
#32 = CIRCLE('',#33,1.6);
#33 = AXIS2_PLACEMENT_3D('',#34,#35,#36);
#34 = CARTESIAN_POINT('',(4.1,0.E+000,1.6));
#35 = DIRECTION('',(1.,0.E+000,0.E+000));
#36 = DIRECTION('',(0.E+000,1.,0.E+000));
#37 = ORIENTED_EDGE('',*,*,#21,.F.);
#38 = ORIENTED_EDGE('',*,*,#39,.F.);
#39 = EDGE_CURVE('',#22,#22,#40,.T.);
#40 = CIRCLE('',#41,1.6);
#41 = AXIS2_PLACEMENT_3D('',#42,#43,#44);
#42 = CARTESIAN_POINT('',(2.65,0.E+000,1.6));
#43 = DIRECTION('',(1.,0.E+000,0.E+000));
#44 = DIRECTION('',(0.E+000,1.,0.E+000));
#45 = CYLINDRICAL_SURFACE('',#46,1.6);
#46 = AXIS2_PLACEMENT_3D('',#47,#48,#49);
#47 = CARTESIAN_POINT('',(1.85,0.E+000,1.6));
#48 = DIRECTION('',(-1.,-0.E+000,-0.E+000));
#49 = DIRECTION('',(0.E+000,1.,0.E+000));
#50 = ADVANCED_FACE('',(#51),#71,.T.);
#51 = FACE_BOUND('',#52,.F.);
#52 = EDGE_LOOP('',(#53,#62,#63,#64));
#53 = ORIENTED_EDGE('',*,*,#54,.F.);
#54 = EDGE_CURVE('',#22,#55,#57,.T.);
#55 = VERTEX_POINT('',#56);
#56 = CARTESIAN_POINT('',(1.85,0.8,1.6));
#57 = CIRCLE('',#58,0.8);
#58 = AXIS2_PLACEMENT_3D('',#59,#60,#61);
#59 = CARTESIAN_POINT('',(2.65,0.8,1.6));
#60 = DIRECTION('',(0.E+000,-0.E+000,1.));
#61 = DIRECTION('',(0.E+000,1.,0.E+000));
#62 = ORIENTED_EDGE('',*,*,#39,.T.);
#63 = ORIENTED_EDGE('',*,*,#54,.T.);
#64 = ORIENTED_EDGE('',*,*,#65,.F.);
#65 = EDGE_CURVE('',#55,#55,#66,.T.);
#66 = CIRCLE('',#67,0.8);
#67 = AXIS2_PLACEMENT_3D('',#68,#69,#70);
#68 = CARTESIAN_POINT('',(1.85,0.E+000,1.6));
#69 = DIRECTION('',(1.,0.E+000,0.E+000));
#70 = DIRECTION('',(0.E+000,1.,0.E+000));
#71 = TOROIDAL_SURFACE('',#72,0.8,0.8);
#72 = AXIS2_PLACEMENT_3D('',#73,#74,#75);
#73 = CARTESIAN_POINT('',(2.65,0.E+000,1.6));
#74 = DIRECTION('',(-1.,0.E+000,0.E+000));
#75 = DIRECTION('',(0.E+000,1.,0.E+000));
#76 = ADVANCED_FACE('',(#77,#80),#91,.F.);
#77 = FACE_BOUND('',#78,.F.);
#78 = EDGE_LOOP('',(#79));
#79 = ORIENTED_EDGE('',*,*,#31,.F.);
#80 = FACE_BOUND('',#81,.F.);
#81 = EDGE_LOOP('',(#82));
#82 = ORIENTED_EDGE('',*,*,#83,.F.);
#83 = EDGE_CURVE('',#84,#84,#86,.T.);
#84 = VERTEX_POINT('',#85);
#85 = CARTESIAN_POINT('',(4.1,1.44,1.6));
#86 = CIRCLE('',#87,1.44);
#87 = AXIS2_PLACEMENT_3D('',#88,#89,#90);
#88 = CARTESIAN_POINT('',(4.1,0.E+000,1.6));
#89 = DIRECTION('',(-1.,0.E+000,0.E+000));
#90 = DIRECTION('',(0.E+000,1.,0.E+000));
#91 = PLANE('',#92);
#92 = AXIS2_PLACEMENT_3D('',#93,#94,#95);
#93 = CARTESIAN_POINT('',(4.1,1.6,1.6));
#94 = DIRECTION('',(-1.,0.E+000,0.E+000));
#95 = DIRECTION('',(0.E+000,0.E+000,-1.));
#96 = ADVANCED_FACE('',(#97,#100),#111,.T.);
#97 = FACE_BOUND('',#98,.T.);
#98 = EDGE_LOOP('',(#99));
#99 = ORIENTED_EDGE('',*,*,#65,.F.);
#100 = FACE_BOUND('',#101,.T.);
#101 = EDGE_LOOP('',(#102));
#102 = ORIENTED_EDGE('',*,*,#103,.T.);
#103 = EDGE_CURVE('',#104,#104,#106,.T.);
#104 = VERTEX_POINT('',#105);
#105 = CARTESIAN_POINT('',(1.85,0.E+000,1.25));
#106 = CIRCLE('',#107,0.35);
#107 = AXIS2_PLACEMENT_3D('',#108,#109,#110);
#108 = CARTESIAN_POINT('',(1.85,0.E+000,1.6));
#109 = DIRECTION('',(1.,-0.E+000,0.E+000));
#110 = DIRECTION('',(0.E+000,0.E+000,-1.));
#111 = PLANE('',#112);
#112 = AXIS2_PLACEMENT_3D('',#113,#114,#115);
#113 = CARTESIAN_POINT('',(1.85,1.6,1.6));
#114 = DIRECTION('',(-1.,0.E+000,0.E+000));
#115 = DIRECTION('',(0.E+000,0.E+000,-1.));
#116 = ADVANCED_FACE('',(#117),#136,.T.);
#117 = FACE_BOUND('',#118,.F.);
#118 = EDGE_LOOP('',(#119,#127,#128,#129));
#119 = ORIENTED_EDGE('',*,*,#120,.F.);
#120 = EDGE_CURVE('',#84,#121,#123,.T.);
#121 = VERTEX_POINT('',#122);
#122 = CARTESIAN_POINT('',(8.6,1.44,1.6));
#123 = LINE('',#124,#125);
#124 = CARTESIAN_POINT('',(1.85,1.44,1.6));
#125 = VECTOR('',#126,1.);
#126 = DIRECTION('',(1.,0.E+000,0.E+000));
#127 = ORIENTED_EDGE('',*,*,#83,.T.);
#128 = ORIENTED_EDGE('',*,*,#120,.T.);
#129 = ORIENTED_EDGE('',*,*,#130,.F.);
#130 = EDGE_CURVE('',#121,#121,#131,.T.);
#131 = CIRCLE('',#132,1.44);
#132 = AXIS2_PLACEMENT_3D('',#133,#134,#135);
#133 = CARTESIAN_POINT('',(8.6,0.E+000,1.6));
#134 = DIRECTION('',(-1.,0.E+000,0.E+000));
#135 = DIRECTION('',(0.E+000,1.,0.E+000));
#136 = CYLINDRICAL_SURFACE('',#137,1.44);
#137 = AXIS2_PLACEMENT_3D('',#138,#139,#140);
#138 = CARTESIAN_POINT('',(1.85,0.E+000,1.6));
#139 = DIRECTION('',(-1.,-0.E+000,-0.E+000));
#140 = DIRECTION('',(0.E+000,1.,0.E+000));
#141 = ADVANCED_FACE('',(#142),#161,.T.);
#142 = FACE_BOUND('',#143,.T.);
#143 = EDGE_LOOP('',(#144,#153,#159,#160));
#144 = ORIENTED_EDGE('',*,*,#145,.F.);
#145 = EDGE_CURVE('',#146,#146,#148,.T.);
#146 = VERTEX_POINT('',#147);
#147 = CARTESIAN_POINT('',(1.05,0.E+000,1.25));
#148 = CIRCLE('',#149,0.35);
#149 = AXIS2_PLACEMENT_3D('',#150,#151,#152);
#150 = CARTESIAN_POINT('',(1.05,0.E+000,1.6));
#151 = DIRECTION('',(-1.,0.E+000,6.049014748177E-016));
#152 = DIRECTION('',(6.049014748177E-016,0.E+000,1.));
#153 = ORIENTED_EDGE('',*,*,#154,.T.);
#154 = EDGE_CURVE('',#146,#104,#155,.T.);
#155 = LINE('',#156,#157);
#156 = CARTESIAN_POINT('',(1.05,0.E+000,1.25));
#157 = VECTOR('',#158,1.);
#158 = DIRECTION('',(1.,0.E+000,0.E+000));
#159 = ORIENTED_EDGE('',*,*,#103,.F.);
#160 = ORIENTED_EDGE('',*,*,#154,.F.);
#161 = CYLINDRICAL_SURFACE('',#162,0.35);
#162 = AXIS2_PLACEMENT_3D('',#163,#164,#165);
#163 = CARTESIAN_POINT('',(1.05,0.E+000,1.6));
#164 = DIRECTION('',(1.,0.E+000,0.E+000));
#165 = DIRECTION('',(0.E+000,0.E+000,-1.));
#166 = ADVANCED_FACE('',(#167,#178),#181,.T.);
#167 = FACE_BOUND('',#168,.T.);
#168 = EDGE_LOOP('',(#169));
#169 = ORIENTED_EDGE('',*,*,#170,.F.);
#170 = EDGE_CURVE('',#171,#171,#173,.T.);
#171 = VERTEX_POINT('',#172);
#172 = CARTESIAN_POINT('',(8.6,1.6,1.6));
#173 = CIRCLE('',#174,1.6);
#174 = AXIS2_PLACEMENT_3D('',#175,#176,#177);
#175 = CARTESIAN_POINT('',(8.6,0.E+000,1.6));
#176 = DIRECTION('',(1.,0.E+000,0.E+000));
#177 = DIRECTION('',(0.E+000,1.,0.E+000));
#178 = FACE_BOUND('',#179,.T.);
#179 = EDGE_LOOP('',(#180));
#180 = ORIENTED_EDGE('',*,*,#130,.F.);
#181 = PLANE('',#182);
#182 = AXIS2_PLACEMENT_3D('',#183,#184,#185);
#183 = CARTESIAN_POINT('',(8.6,1.6,1.6));
#184 = DIRECTION('',(-1.,0.E+000,0.E+000));
#185 = DIRECTION('',(0.E+000,0.E+000,-1.));
#186 = ADVANCED_FACE('',(#187),#207,.T.);
#187 = FACE_BOUND('',#188,.T.);
#188 = EDGE_LOOP('',(#189,#198,#199,#200));
#189 = ORIENTED_EDGE('',*,*,#190,.T.);
#190 = EDGE_CURVE('',#191,#146,#193,.T.);
#191 = VERTEX_POINT('',#192);
#192 = CARTESIAN_POINT('',(0.35,0.E+000,0.55));
#193 = CIRCLE('',#194,0.7);
#194 = AXIS2_PLACEMENT_3D('',#195,#196,#197);
#195 = CARTESIAN_POINT('',(1.05,1.285879139105E-016,0.55));
#196 = DIRECTION('',(0.E+000,1.,-0.E+000));
#197 = DIRECTION('',(-1.,0.E+000,0.E+000));
#198 = ORIENTED_EDGE('',*,*,#145,.T.);
#199 = ORIENTED_EDGE('',*,*,#190,.F.);
#200 = ORIENTED_EDGE('',*,*,#201,.T.);
#201 = EDGE_CURVE('',#191,#191,#202,.T.);
#202 = CIRCLE('',#203,0.35);
#203 = AXIS2_PLACEMENT_3D('',#204,#205,#206);
#204 = CARTESIAN_POINT('',(0.E+000,0.E+000,0.55));
#205 = DIRECTION('',(0.E+000,0.E+000,1.));
#206 = DIRECTION('',(1.,0.E+000,0.E+000));
#207 = TOROIDAL_SURFACE('',#208,1.05,0.35);
#208 = AXIS2_PLACEMENT_3D('',#209,#210,#211);
#209 = CARTESIAN_POINT('',(1.05,0.E+000,0.55));
#210 = DIRECTION('',(0.E+000,1.,0.E+000));
#211 = DIRECTION('',(-1.,0.E+000,0.E+000));
#212 = ADVANCED_FACE('',(#213),#232,.T.);
#213 = FACE_BOUND('',#214,.F.);
#214 = EDGE_LOOP('',(#215,#223,#230,#231));
#215 = ORIENTED_EDGE('',*,*,#216,.T.);
#216 = EDGE_CURVE('',#171,#217,#219,.T.);
#217 = VERTEX_POINT('',#218);
#218 = CARTESIAN_POINT('',(10.05,1.6,1.6));
#219 = LINE('',#220,#221);
#220 = CARTESIAN_POINT('',(8.6,1.6,1.6));
#221 = VECTOR('',#222,1.);
#222 = DIRECTION('',(1.,0.E+000,0.E+000));
#223 = ORIENTED_EDGE('',*,*,#224,.T.);
#224 = EDGE_CURVE('',#217,#217,#225,.T.);
#225 = CIRCLE('',#226,1.6);
#226 = AXIS2_PLACEMENT_3D('',#227,#228,#229);
#227 = CARTESIAN_POINT('',(10.05,0.E+000,1.6));
#228 = DIRECTION('',(1.,0.E+000,0.E+000));
#229 = DIRECTION('',(0.E+000,1.,0.E+000));
#230 = ORIENTED_EDGE('',*,*,#216,.F.);
#231 = ORIENTED_EDGE('',*,*,#170,.F.);
#232 = CYLINDRICAL_SURFACE('',#233,1.6);
#233 = AXIS2_PLACEMENT_3D('',#234,#235,#236);
#234 = CARTESIAN_POINT('',(8.6,0.E+000,1.6));
#235 = DIRECTION('',(-1.,-0.E+000,-0.E+000));
#236 = DIRECTION('',(0.E+000,1.,0.E+000));
#237 = ADVANCED_FACE('',(#238),#257,.T.);
#238 = FACE_BOUND('',#239,.T.);
#239 = EDGE_LOOP('',(#240,#248,#249,#250));
#240 = ORIENTED_EDGE('',*,*,#241,.T.);
#241 = EDGE_CURVE('',#242,#191,#244,.T.);
#242 = VERTEX_POINT('',#243);
#243 = CARTESIAN_POINT('',(0.35,-8.572527594031E-017,-3.));
#244 = LINE('',#245,#246);
#245 = CARTESIAN_POINT('',(0.35,0.E+000,-3.));
#246 = VECTOR('',#247,1.);
#247 = DIRECTION('',(0.E+000,0.E+000,1.));
#248 = ORIENTED_EDGE('',*,*,#201,.F.);
#249 = ORIENTED_EDGE('',*,*,#241,.F.);
#250 = ORIENTED_EDGE('',*,*,#251,.T.);
#251 = EDGE_CURVE('',#242,#242,#252,.T.);
#252 = CIRCLE('',#253,0.35);
#253 = AXIS2_PLACEMENT_3D('',#254,#255,#256);
#254 = CARTESIAN_POINT('',(0.E+000,0.E+000,-3.));
#255 = DIRECTION('',(0.E+000,0.E+000,1.));
#256 = DIRECTION('',(1.,0.E+000,0.E+000));
#257 = CYLINDRICAL_SURFACE('',#258,0.35);
#258 = AXIS2_PLACEMENT_3D('',#259,#260,#261);
#259 = CARTESIAN_POINT('',(0.E+000,0.E+000,-3.));
#260 = DIRECTION('',(0.E+000,0.E+000,1.));
#261 = DIRECTION('',(1.,0.E+000,0.E+000));
#262 = ADVANCED_FACE('',(#263),#283,.T.);
#263 = FACE_BOUND('',#264,.T.);
#264 = EDGE_LOOP('',(#265,#274,#275,#276));
#265 = ORIENTED_EDGE('',*,*,#266,.F.);
#266 = EDGE_CURVE('',#217,#267,#269,.T.);
#267 = VERTEX_POINT('',#268);
#268 = CARTESIAN_POINT('',(10.85,0.8,1.6));
#269 = CIRCLE('',#270,0.8);
#270 = AXIS2_PLACEMENT_3D('',#271,#272,#273);
#271 = CARTESIAN_POINT('',(10.05,0.8,1.6));
#272 = DIRECTION('',(0.E+000,0.E+000,-1.));
#273 = DIRECTION('',(0.E+000,1.,0.E+000));
#274 = ORIENTED_EDGE('',*,*,#224,.T.);
#275 = ORIENTED_EDGE('',*,*,#266,.T.);
#276 = ORIENTED_EDGE('',*,*,#277,.F.);
#277 = EDGE_CURVE('',#267,#267,#278,.T.);
#278 = CIRCLE('',#279,0.8);
#279 = AXIS2_PLACEMENT_3D('',#280,#281,#282);
#280 = CARTESIAN_POINT('',(10.85,0.E+000,1.6));
#281 = DIRECTION('',(1.,0.E+000,0.E+000));
#282 = DIRECTION('',(0.E+000,1.,0.E+000));
#283 = TOROIDAL_SURFACE('',#284,0.8,0.8);
#284 = AXIS2_PLACEMENT_3D('',#285,#286,#287);
#285 = CARTESIAN_POINT('',(10.05,0.E+000,1.6));
#286 = DIRECTION('',(1.,0.E+000,0.E+000));
#287 = DIRECTION('',(0.E+000,1.,0.E+000));
#288 = ADVANCED_FACE('',(#289),#292,.T.);
#289 = FACE_BOUND('',#290,.F.);
#290 = EDGE_LOOP('',(#291));
#291 = ORIENTED_EDGE('',*,*,#251,.T.);
#292 = PLANE('',#293);
#293 = AXIS2_PLACEMENT_3D('',#294,#295,#296);
#294 = CARTESIAN_POINT('',(0.35,0.E+000,-3.));
#295 = DIRECTION('',(0.E+000,0.E+000,-1.));
#296 = DIRECTION('',(-1.,0.E+000,0.E+000));
#297 = ADVANCED_FACE('',(#298,#301),#312,.F.);
#298 = FACE_BOUND('',#299,.F.);
#299 = EDGE_LOOP('',(#300));
#300 = ORIENTED_EDGE('',*,*,#277,.F.);
#301 = FACE_BOUND('',#302,.F.);
#302 = EDGE_LOOP('',(#303));
#303 = ORIENTED_EDGE('',*,*,#304,.T.);
#304 = EDGE_CURVE('',#305,#305,#307,.T.);
#305 = VERTEX_POINT('',#306);
#306 = CARTESIAN_POINT('',(10.85,0.E+000,1.25));
#307 = CIRCLE('',#308,0.35);
#308 = AXIS2_PLACEMENT_3D('',#309,#310,#311);
#309 = CARTESIAN_POINT('',(10.85,0.E+000,1.6));
#310 = DIRECTION('',(1.,-0.E+000,0.E+000));
#311 = DIRECTION('',(0.E+000,0.E+000,-1.));
#312 = PLANE('',#313);
#313 = AXIS2_PLACEMENT_3D('',#314,#315,#316);
#314 = CARTESIAN_POINT('',(10.85,1.6,1.6));
#315 = DIRECTION('',(-1.,0.E+000,0.E+000));
#316 = DIRECTION('',(0.E+000,0.E+000,-1.));
#317 = ADVANCED_FACE('',(#318),#337,.T.);
#318 = FACE_BOUND('',#319,.T.);
#319 = EDGE_LOOP('',(#320,#321,#329,#336));
#320 = ORIENTED_EDGE('',*,*,#304,.T.);
#321 = ORIENTED_EDGE('',*,*,#322,.T.);
#322 = EDGE_CURVE('',#305,#323,#325,.T.);
#323 = VERTEX_POINT('',#324);
#324 = CARTESIAN_POINT('',(11.65,0.E+000,1.25));
#325 = LINE('',#326,#327);
#326 = CARTESIAN_POINT('',(1.05,0.E+000,1.25));
#327 = VECTOR('',#328,1.);
#328 = DIRECTION('',(1.,0.E+000,0.E+000));
#329 = ORIENTED_EDGE('',*,*,#330,.F.);
#330 = EDGE_CURVE('',#323,#323,#331,.T.);
#331 = CIRCLE('',#332,0.35);
#332 = AXIS2_PLACEMENT_3D('',#333,#334,#335);
#333 = CARTESIAN_POINT('',(11.65,0.E+000,1.6));
#334 = DIRECTION('',(1.,-0.E+000,0.E+000));
#335 = DIRECTION('',(0.E+000,0.E+000,-1.));
#336 = ORIENTED_EDGE('',*,*,#322,.F.);
#337 = CYLINDRICAL_SURFACE('',#338,0.35);
#338 = AXIS2_PLACEMENT_3D('',#339,#340,#341);
#339 = CARTESIAN_POINT('',(1.05,0.E+000,1.6));
#340 = DIRECTION('',(1.,0.E+000,0.E+000));
#341 = DIRECTION('',(0.E+000,0.E+000,-1.));
#342 = ADVANCED_FACE('',(#343),#363,.T.);
#343 = FACE_BOUND('',#344,.T.);
#344 = EDGE_LOOP('',(#345,#354,#361,#362));
#345 = ORIENTED_EDGE('',*,*,#346,.T.);
#346 = EDGE_CURVE('',#323,#347,#349,.T.);
#347 = VERTEX_POINT('',#348);
#348 = CARTESIAN_POINT('',(12.35,0.E+000,0.55));
#349 = CIRCLE('',#350,0.7);
#350 = AXIS2_PLACEMENT_3D('',#351,#352,#353);
#351 = CARTESIAN_POINT('',(11.65,1.285879139105E-016,0.55));
#352 = DIRECTION('',(0.E+000,1.,0.E+000));
#353 = DIRECTION('',(0.E+000,0.E+000,1.));
#354 = ORIENTED_EDGE('',*,*,#355,.T.);
#355 = EDGE_CURVE('',#347,#347,#356,.T.);
#356 = CIRCLE('',#357,0.35);
#357 = AXIS2_PLACEMENT_3D('',#358,#359,#360);
#358 = CARTESIAN_POINT('',(12.7,0.E+000,0.55));
#359 = DIRECTION('',(-1.171455364583E-015,0.E+000,1.));
#360 = DIRECTION('',(1.,0.E+000,1.171455364583E-015));
#361 = ORIENTED_EDGE('',*,*,#346,.F.);
#362 = ORIENTED_EDGE('',*,*,#330,.T.);
#363 = TOROIDAL_SURFACE('',#364,1.05,0.35);
#364 = AXIS2_PLACEMENT_3D('',#365,#366,#367);
#365 = CARTESIAN_POINT('',(11.65,0.E+000,0.55));
#366 = DIRECTION('',(0.E+000,1.,0.E+000));
#367 = DIRECTION('',(0.E+000,0.E+000,1.));
#368 = ADVANCED_FACE('',(#369),#388,.T.);
#369 = FACE_BOUND('',#370,.T.);
#370 = EDGE_LOOP('',(#371,#379,#386,#387));
#371 = ORIENTED_EDGE('',*,*,#372,.T.);
#372 = EDGE_CURVE('',#347,#373,#375,.T.);
#373 = VERTEX_POINT('',#374);
#374 = CARTESIAN_POINT('',(12.35,-8.572527594031E-017,-3.));
#375 = LINE('',#376,#377);
#376 = CARTESIAN_POINT('',(12.35,0.E+000,0.55));
#377 = VECTOR('',#378,1.);
#378 = DIRECTION('',(0.E+000,0.E+000,-1.));
#379 = ORIENTED_EDGE('',*,*,#380,.F.);
#380 = EDGE_CURVE('',#373,#373,#381,.T.);
#381 = CIRCLE('',#382,0.35);
#382 = AXIS2_PLACEMENT_3D('',#383,#384,#385);
#383 = CARTESIAN_POINT('',(12.7,0.E+000,-3.));
#384 = DIRECTION('',(0.E+000,0.E+000,-1.));
#385 = DIRECTION('',(-1.,0.E+000,0.E+000));
#386 = ORIENTED_EDGE('',*,*,#372,.F.);
#387 = ORIENTED_EDGE('',*,*,#355,.F.);
#388 = CYLINDRICAL_SURFACE('',#389,0.35);
#389 = AXIS2_PLACEMENT_3D('',#390,#391,#392);
#390 = CARTESIAN_POINT('',(12.7,0.E+000,0.55));
#391 = DIRECTION('',(0.E+000,0.E+000,-1.));
#392 = DIRECTION('',(-1.,0.E+000,0.E+000));
#393 = ADVANCED_FACE('',(#394),#397,.F.);
#394 = FACE_BOUND('',#395,.T.);
#395 = EDGE_LOOP('',(#396));
#396 = ORIENTED_EDGE('',*,*,#380,.T.);
#397 = PLANE('',#398);
#398 = AXIS2_PLACEMENT_3D('',#399,#400,#401);
#399 = CARTESIAN_POINT('',(12.35,0.E+000,-3.));
#400 = DIRECTION('',(0.E+000,0.E+000,1.));
#401 = DIRECTION('',(1.,0.E+000,0.E+000));
#402 = ( GEOMETRIC_REPRESENTATION_CONTEXT(3)
GLOBAL_UNCERTAINTY_ASSIGNED_CONTEXT((#406)) GLOBAL_UNIT_ASSIGNED_CONTEXT
((#403,#404,#405)) REPRESENTATION_CONTEXT('Context #1',
'3D Context with UNIT and UNCERTAINTY') );
#403 = ( LENGTH_UNIT() NAMED_UNIT(*) SI_UNIT(.MILLI.,.METRE.) );
#404 = ( NAMED_UNIT(*) PLANE_ANGLE_UNIT() SI_UNIT($,.RADIAN.) );
#405 = ( NAMED_UNIT(*) SI_UNIT($,.STERADIAN.) SOLID_ANGLE_UNIT() );
#406 = UNCERTAINTY_MEASURE_WITH_UNIT(LENGTH_MEASURE(1.E-007),#403,
'distance_accuracy_value','confusion accuracy');
#407 = PRODUCT_TYPE('part',$,(#7));
#408 = MECHANICAL_DESIGN_GEOMETRIC_PRESENTATION_REPRESENTATION('',(#409,
#417,#424,#431,#438,#445,#453,#460,#467,#474,#481,#488,#495,#502,
#509,#516,#523),#402);
#409 = STYLED_ITEM('color',(#410),#17);
#410 = PRESENTATION_STYLE_ASSIGNMENT((#411));
#411 = SURFACE_STYLE_USAGE(.BOTH.,#412);
#412 = SURFACE_SIDE_STYLE('',(#413));
#413 = SURFACE_STYLE_FILL_AREA(#414);
#414 = FILL_AREA_STYLE('',(#415));
#415 = FILL_AREA_STYLE_COLOUR('',#416);
#416 = COLOUR_RGB('',0.883000016212,0.711000025272,0.49200001359);
#417 = STYLED_ITEM('color',(#418),#50);
#418 = PRESENTATION_STYLE_ASSIGNMENT((#419));
#419 = SURFACE_STYLE_USAGE(.BOTH.,#420);
#420 = SURFACE_SIDE_STYLE('',(#421));
#421 = SURFACE_STYLE_FILL_AREA(#422);
#422 = FILL_AREA_STYLE('',(#423));
#423 = FILL_AREA_STYLE_COLOUR('',#416);
#424 = STYLED_ITEM('color',(#425),#76);
#425 = PRESENTATION_STYLE_ASSIGNMENT((#426));
#426 = SURFACE_STYLE_USAGE(.BOTH.,#427);
#427 = SURFACE_SIDE_STYLE('',(#428));
#428 = SURFACE_STYLE_FILL_AREA(#429);
#429 = FILL_AREA_STYLE('',(#430));
#430 = FILL_AREA_STYLE_COLOUR('',#416);
#431 = STYLED_ITEM('color',(#432),#96);
#432 = PRESENTATION_STYLE_ASSIGNMENT((#433));
#433 = SURFACE_STYLE_USAGE(.BOTH.,#434);
#434 = SURFACE_SIDE_STYLE('',(#435));
#435 = SURFACE_STYLE_FILL_AREA(#436);
#436 = FILL_AREA_STYLE('',(#437));
#437 = FILL_AREA_STYLE_COLOUR('',#416);
#438 = STYLED_ITEM('color',(#439),#116);
#439 = PRESENTATION_STYLE_ASSIGNMENT((#440));
#440 = SURFACE_STYLE_USAGE(.BOTH.,#441);
#441 = SURFACE_SIDE_STYLE('',(#442));
#442 = SURFACE_STYLE_FILL_AREA(#443);
#443 = FILL_AREA_STYLE('',(#444));
#444 = FILL_AREA_STYLE_COLOUR('',#416);
#445 = STYLED_ITEM('color',(#446),#141);
#446 = PRESENTATION_STYLE_ASSIGNMENT((#447));
#447 = SURFACE_STYLE_USAGE(.BOTH.,#448);
#448 = SURFACE_SIDE_STYLE('',(#449));
#449 = SURFACE_STYLE_FILL_AREA(#450);
#450 = FILL_AREA_STYLE('',(#451));
#451 = FILL_AREA_STYLE_COLOUR('',#452);
#452 = COLOUR_RGB('',0.824000000954,0.819999992847,0.78100001812);
#453 = STYLED_ITEM('color',(#454),#166);
#454 = PRESENTATION_STYLE_ASSIGNMENT((#455));
#455 = SURFACE_STYLE_USAGE(.BOTH.,#456);
#456 = SURFACE_SIDE_STYLE('',(#457));
#457 = SURFACE_STYLE_FILL_AREA(#458);
#458 = FILL_AREA_STYLE('',(#459));
#459 = FILL_AREA_STYLE_COLOUR('',#416);
#460 = STYLED_ITEM('color',(#461),#186);
#461 = PRESENTATION_STYLE_ASSIGNMENT((#462));
#462 = SURFACE_STYLE_USAGE(.BOTH.,#463);
#463 = SURFACE_SIDE_STYLE('',(#464));
#464 = SURFACE_STYLE_FILL_AREA(#465);
#465 = FILL_AREA_STYLE('',(#466));
#466 = FILL_AREA_STYLE_COLOUR('',#452);
#467 = STYLED_ITEM('color',(#468),#212);
#468 = PRESENTATION_STYLE_ASSIGNMENT((#469));
#469 = SURFACE_STYLE_USAGE(.BOTH.,#470);
#470 = SURFACE_SIDE_STYLE('',(#471));
#471 = SURFACE_STYLE_FILL_AREA(#472);
#472 = FILL_AREA_STYLE('',(#473));
#473 = FILL_AREA_STYLE_COLOUR('',#416);
#474 = STYLED_ITEM('color',(#475),#237);
#475 = PRESENTATION_STYLE_ASSIGNMENT((#476));
#476 = SURFACE_STYLE_USAGE(.BOTH.,#477);
#477 = SURFACE_SIDE_STYLE('',(#478));
#478 = SURFACE_STYLE_FILL_AREA(#479);
#479 = FILL_AREA_STYLE('',(#480));
#480 = FILL_AREA_STYLE_COLOUR('',#452);
#481 = STYLED_ITEM('color',(#482),#262);
#482 = PRESENTATION_STYLE_ASSIGNMENT((#483));
#483 = SURFACE_STYLE_USAGE(.BOTH.,#484);
#484 = SURFACE_SIDE_STYLE('',(#485));
#485 = SURFACE_STYLE_FILL_AREA(#486);
#486 = FILL_AREA_STYLE('',(#487));
#487 = FILL_AREA_STYLE_COLOUR('',#416);
#488 = STYLED_ITEM('color',(#489),#288);
#489 = PRESENTATION_STYLE_ASSIGNMENT((#490));
#490 = SURFACE_STYLE_USAGE(.BOTH.,#491);
#491 = SURFACE_SIDE_STYLE('',(#492));
#492 = SURFACE_STYLE_FILL_AREA(#493);
#493 = FILL_AREA_STYLE('',(#494));
#494 = FILL_AREA_STYLE_COLOUR('',#452);
#495 = STYLED_ITEM('color',(#496),#297);
#496 = PRESENTATION_STYLE_ASSIGNMENT((#497));
#497 = SURFACE_STYLE_USAGE(.BOTH.,#498);
#498 = SURFACE_SIDE_STYLE('',(#499));
#499 = SURFACE_STYLE_FILL_AREA(#500);
#500 = FILL_AREA_STYLE('',(#501));
#501 = FILL_AREA_STYLE_COLOUR('',#416);
#502 = STYLED_ITEM('color',(#503),#317);
#503 = PRESENTATION_STYLE_ASSIGNMENT((#504));
#504 = SURFACE_STYLE_USAGE(.BOTH.,#505);
#505 = SURFACE_SIDE_STYLE('',(#506));
#506 = SURFACE_STYLE_FILL_AREA(#507);
#507 = FILL_AREA_STYLE('',(#508));
#508 = FILL_AREA_STYLE_COLOUR('',#452);
#509 = STYLED_ITEM('color',(#510),#342);
#510 = PRESENTATION_STYLE_ASSIGNMENT((#511));
#511 = SURFACE_STYLE_USAGE(.BOTH.,#512);
#512 = SURFACE_SIDE_STYLE('',(#513));
#513 = SURFACE_STYLE_FILL_AREA(#514);
#514 = FILL_AREA_STYLE('',(#515));
#515 = FILL_AREA_STYLE_COLOUR('',#452);
#516 = STYLED_ITEM('color',(#517),#368);
#517 = PRESENTATION_STYLE_ASSIGNMENT((#518));
#518 = SURFACE_STYLE_USAGE(.BOTH.,#519);
#519 = SURFACE_SIDE_STYLE('',(#520));
#520 = SURFACE_STYLE_FILL_AREA(#521);
#521 = FILL_AREA_STYLE('',(#522));
#522 = FILL_AREA_STYLE_COLOUR('',#452);
#523 = STYLED_ITEM('color',(#524),#393);
#524 = PRESENTATION_STYLE_ASSIGNMENT((#525));
#525 = SURFACE_STYLE_USAGE(.BOTH.,#526);
#526 = SURFACE_SIDE_STYLE('',(#527));
#527 = SURFACE_STYLE_FILL_AREA(#528);
#528 = FILL_AREA_STYLE('',(#529));
#529 = FILL_AREA_STYLE_COLOUR('',#452);
ENDSEC;
END-ISO-10303-21;
