 0
SECTION
 2
HEADER
 0
ENDSEC
 0
SECTION
 2
TABLES
 0
ENDSEC
 0
SECTION
 2
BLOCKS
 0
BLOCK
 70
0
 2
RTW0024H
 10
0
 20
0
 30
0
 999
##### LINE 31 ####
 0
SOLID
 62
2
 5
36
 8
2
 10
-0.0875984041607007
 20
-0.0835984039707109
 11
-0.0875984041607007
 21
-0.0915984043506905
 12
-0.0787402037399588
 22
-0.0835984039707109
 13
-0.0787402037399588
 23
-0.0915984043506905
 999
##### LINE 32 ####
 0
SOLID
 62
2
 5
36
 8
2
 10
-0.0915984043506905
 20
-0.0875984041607007
 11
-0.0835984039707109
 21
-0.0875984041607007
 12
-0.0915984043506905
 22
-0.0787402037399588
 13
-0.0835984039707109
 23
-0.0787402037399588
 999
##### LINE 33 ####
 0
SOLID
 62
2
 5
36
 8
2
 10
0.0835984039707109
 20
-0.0875984041607007
 11
0.0915984043506905
 21
-0.0875984041607007
 12
0.0835984039707109
 22
-0.0787402037399588
 13
0.0915984043506905
 23
-0.0787402037399588
 999
##### LINE 34 ####
 0
SOLID
 62
2
 5
36
 8
2
 10
0.0787402037399588
 20
-0.0835984039707109
 11
0.0787402037399588
 21
-0.0915984043506905
 12
0.0875984041607007
 22
-0.0835984039707109
 13
0.0875984041607007
 23
-0.0915984043506905
 999
##### LINE 35 ####
 0
SOLID
 62
2
 5
36
 8
2
 10
0.0787402037399588
 20
0.0915984043506905
 11
0.0787402037399588
 21
0.0835984039707109
 12
0.0875984041607007
 22
0.0915984043506905
 13
0.0875984041607007
 23
0.0835984039707109
 999
##### LINE 36 ####
 0
SOLID
 62
2
 5
36
 8
2
 10
0.0835984039707109
 20
0.0787402037399588
 11
0.0915984043506905
 21
0.0787402037399588
 12
0.0835984039707109
 22
0.0875984041607007
 13
0.0915984043506905
 23
0.0875984041607007
 999
##### LINE 37 ####
 0
SOLID
 62
2
 5
36
 8
2
 10
-0.0915984043506905
 20
0.0629921029919642
 11
-0.0835984039707109
 21
0.0629921029919642
 12
-0.0915984043506905
 22
0.0875984041607007
 13
-0.0835984039707109
 23
0.0875984041607007
 999
##### LINE 38 ####
 0
SOLID
 62
2
 5
36
 8
2
 10
-0.0875984041607007
 20
0.0915984043506905
 11
-0.0875984041607007
 21
0.0835984039707109
 12
-0.0629921029919642
 22
0.0915984043506905
 13
-0.0629921029919642
 23
0.0835984039707109
 999
##### LINE 39 ####
 0
SOLID
 62
1
 5
36
 8
1
 10
-0.0807086038334528
 20
-0.0787086037384579
 11
-0.0807086038334528
 21
-0.0827086039284477
 12
0.0807086038334528
 22
-0.0787086037384579
 13
0.0807086038334528
 23
-0.0827086039284477
 999
##### LINE 41 ####
 0
SOLID
 62
1
 5
36
 8
1
 10
-0.0807086038334528
 20
0.0827086039284477
 11
-0.0807086038334528
 21
0.0787086037384579
 12
0.0807086038334528
 22
0.0827086039284477
 13
0.0807086038334528
 23
0.0787086037384579
 999
##### LINE 43 ####
 0
SOLID
 62
1
 5
36
 8
1
 10
0.0787086037384579
 20
-0.0807086038334528
 11
0.0827086039284477
 21
-0.0807086038334528
 12
0.0787086037384579
 22
0.0807086038334528
 13
0.0827086039284477
 23
0.0807086038334528
 999
##### LINE 45 ####
 0
SOLID
 62
1
 5
36
 8
1
 10
-0.0827086039284477
 20
-0.0807086038334528
 11
-0.0787086037384579
 21
-0.0807086038334528
 12
-0.0827086039284477
 22
0.0807086038334528
 13
-0.0787086037384579
 23
0.0807086038334528
999
##### Poly 47 ####
0
POLYLINE
5
36
70
1
8
3
6
CONTINUOUS
 62
3
66
1
10
0
20
0
0
VERTEX
8
3
6
CONTINUOUS
 10
0.00393700018699747
 20
0.00581100027600769
0
VERTEX
8
3
6
CONTINUOUS
 10
0.00393700018699747
 20
0.0489134023232618
0
VERTEX
8
3
6
CONTINUOUS
 10
0.00397300018870737
 20
0.0492790023406269
0
VERTEX
8
3
6
CONTINUOUS
 10
0.00407970019377535
 20
0.0496305023573223
0
VERTEX
8
3
6
CONTINUOUS
 10
0.00425280020199716
 20
0.0499545023727114
0
VERTEX
8
3
6
CONTINUOUS
 10
0.00448590021306882
 20
0.0502385023862007
0
VERTEX
8
3
6
CONTINUOUS
 10
0.00476990022655809
 20
0.0504716023972724
0
VERTEX
8
3
6
CONTINUOUS
 10
0.00509390024194727
 20
0.0506447024054942
0
VERTEX
8
3
6
CONTINUOUS
 10
0.00544540025864262
 20
0.0507514024105621
0
VERTEX
8
3
6
CONTINUOUS
 10
0.00581100027600769
 20
0.0507874024122721
0
VERTEX
8
3
6
CONTINUOUS
 10
0.0489134023232618
 20
0.0507874024122721
0
VERTEX
8
3
6
CONTINUOUS
 10
0.0492790023406269
 20
0.0507514024105621
0
VERTEX
8
3
6
CONTINUOUS
 10
0.0496305023573223
 20
0.0506447024054942
0
VERTEX
8
3
6
CONTINUOUS
 10
0.0499545023727114
 20
0.0504716023972724
0
VERTEX
8
3
6
CONTINUOUS
 10
0.0502385023862007
 20
0.0502385023862007
0
VERTEX
8
3
6
CONTINUOUS
 10
0.0504716023972724
 20
0.0499545023727114
0
VERTEX
8
3
6
CONTINUOUS
 10
0.0506447024054942
 20
0.0496305023573223
0
VERTEX
8
3
6
CONTINUOUS
 10
0.0507514024105621
 20
0.0492790023406269
0
VERTEX
8
3
6
CONTINUOUS
 10
0.0507874024122721
 20
0.0489134023232618
0
VERTEX
8
3
6
CONTINUOUS
 10
0.0507874024122721
 20
0.00581100027600769
0
VERTEX
8
3
6
CONTINUOUS
 10
0.0507514024105621
 20
0.00544540025864262
0
VERTEX
8
3
6
CONTINUOUS
 10
0.0506447024054942
 20
0.00509390024194727
0
VERTEX
8
3
6
CONTINUOUS
 10
0.0504716023972724
 20
0.00476990022655809
0
VERTEX
8
3
6
CONTINUOUS
 10
0.0502385023862007
 20
0.00448590021306882
0
VERTEX
8
3
6
CONTINUOUS
 10
0.0499545023727114
 20
0.00425280020199716
0
VERTEX
8
3
6
CONTINUOUS
 10
0.0496305023573223
 20
0.00407970019377535
0
VERTEX
8
3
6
CONTINUOUS
 10
0.0492790023406269
 20
0.00397300018870737
0
VERTEX
8
3
6
CONTINUOUS
 10
0.0489134023232618
 20
0.00393700018699747
0
VERTEX
8
3
6
CONTINUOUS
 10
0.00581100027600769
 20
0.00393700018699747
0
VERTEX
8
3
6
CONTINUOUS
 10
0.00544540025864262
 20
0.00397300018870737
0
VERTEX
8
3
6
CONTINUOUS
 10
0.00509390024194727
 20
0.00407970019377535
0
VERTEX
8
3
6
CONTINUOUS
 10
0.00476990022655809
 20
0.00425280020199716
0
VERTEX
8
3
6
CONTINUOUS
 10
0.00448590021306882
 20
0.00448590021306882
0
VERTEX
8
3
6
CONTINUOUS
 10
0.00425280020199716
 20
0.00476990022655809
0
VERTEX
8
3
6
CONTINUOUS
 10
0.00407970019377535
 20
0.00509390024194727
0
VERTEX
8
3
6
CONTINUOUS
 10
0.00397300018870737
 20
0.00544540025864262
0
SEQEND
999
##### Poly 48 ####
0
POLYLINE
5
36
70
1
8
3
6
CONTINUOUS
 62
3
66
1
10
0
20
0
0
VERTEX
8
3
6
CONTINUOUS
 10
-0.00393700018699747
 20
0.0489134023232618
0
VERTEX
8
3
6
CONTINUOUS
 10
-0.00393700018699747
 20
0.00581100027600769
0
VERTEX
8
3
6
CONTINUOUS
 10
-0.00397300018870737
 20
0.00544540025864262
0
VERTEX
8
3
6
CONTINUOUS
 10
-0.00407970019377535
 20
0.00509390024194727
0
VERTEX
8
3
6
CONTINUOUS
 10
-0.00425280020199716
 20
0.00476990022655809
0
VERTEX
8
3
6
CONTINUOUS
 10
-0.00448590021306882
 20
0.00448590021306882
0
VERTEX
8
3
6
CONTINUOUS
 10
-0.00476990022655809
 20
0.00425280020199716
0
VERTEX
8
3
6
CONTINUOUS
 10
-0.00509390024194727
 20
0.00407970019377535
0
VERTEX
8
3
6
CONTINUOUS
 10
-0.00544540025864262
 20
0.00397300018870737
0
VERTEX
8
3
6
CONTINUOUS
 10
-0.00581100027600769
 20
0.00393700018699747
0
VERTEX
8
3
6
CONTINUOUS
 10
-0.0489134023232618
 20
0.00393700018699747
0
VERTEX
8
3
6
CONTINUOUS
 10
-0.0492790023406269
 20
0.00397300018870737
0
VERTEX
8
3
6
CONTINUOUS
 10
-0.0496305023573223
 20
0.00407970019377535
0
VERTEX
8
3
6
CONTINUOUS
 10
-0.0499545023727114
 20
0.00425280020199716
0
VERTEX
8
3
6
CONTINUOUS
 10
-0.0502385023862007
 20
0.00448590021306882
0
VERTEX
8
3
6
CONTINUOUS
 10
-0.0504716023972724
 20
0.00476990022655809
0
VERTEX
8
3
6
CONTINUOUS
 10
-0.0506447024054942
 20
0.00509390024194727
0
VERTEX
8
3
6
CONTINUOUS
 10
-0.0507514024105621
 20
0.00544540025864262
0
VERTEX
8
3
6
CONTINUOUS
 10
-0.0507874024122721
 20
0.00581100027600769
0
VERTEX
8
3
6
CONTINUOUS
 10
-0.0507874024122721
 20
0.0489134023232618
0
VERTEX
8
3
6
CONTINUOUS
 10
-0.0507514024105621
 20
0.0492790023406269
0
VERTEX
8
3
6
CONTINUOUS
 10
-0.0506447024054942
 20
0.0496305023573223
0
VERTEX
8
3
6
CONTINUOUS
 10
-0.0504716023972724
 20
0.0499545023727114
0
VERTEX
8
3
6
CONTINUOUS
 10
-0.0502385023862007
 20
0.0502385023862007
0
VERTEX
8
3
6
CONTINUOUS
 10
-0.0499545023727114
 20
0.0504716023972724
0
VERTEX
8
3
6
CONTINUOUS
 10
-0.0496305023573223
 20
0.0506447024054942
0
VERTEX
8
3
6
CONTINUOUS
 10
-0.0492790023406269
 20
0.0507514024105621
0
VERTEX
8
3
6
CONTINUOUS
 10
-0.0489134023232618
 20
0.0507874024122721
0
VERTEX
8
3
6
CONTINUOUS
 10
-0.00581100027600769
 20
0.0507874024122721
0
VERTEX
8
3
6
CONTINUOUS
 10
-0.00544540025864262
 20
0.0507514024105621
0
VERTEX
8
3
6
CONTINUOUS
 10
-0.00509390024194727
 20
0.0506447024054942
0
VERTEX
8
3
6
CONTINUOUS
 10
-0.00476990022655809
 20
0.0504716023972724
0
VERTEX
8
3
6
CONTINUOUS
 10
-0.00448590021306882
 20
0.0502385023862007
0
VERTEX
8
3
6
CONTINUOUS
 10
-0.00425280020199716
 20
0.0499545023727114
0
VERTEX
8
3
6
CONTINUOUS
 10
-0.00407970019377535
 20
0.0496305023573223
0
VERTEX
8
3
6
CONTINUOUS
 10
-0.00397300018870737
 20
0.0492790023406269
0
SEQEND
999
##### Poly 49 ####
0
POLYLINE
5
36
70
1
8
3
6
CONTINUOUS
 62
3
66
1
10
0
20
0
0
VERTEX
8
3
6
CONTINUOUS
 10
-0.00393700018699747
 20
-0.00581100027600769
0
VERTEX
8
3
6
CONTINUOUS
 10
-0.00393700018699747
 20
-0.0489134023232618
0
VERTEX
8
3
6
CONTINUOUS
 10
-0.00397300018870737
 20
-0.0492790023406269
0
VERTEX
8
3
6
CONTINUOUS
 10
-0.00407970019377535
 20
-0.0496305023573223
0
VERTEX
8
3
6
CONTINUOUS
 10
-0.00425280020199716
 20
-0.0499545023727114
0
VERTEX
8
3
6
CONTINUOUS
 10
-0.00448590021306882
 20
-0.0502385023862007
0
VERTEX
8
3
6
CONTINUOUS
 10
-0.00476990022655809
 20
-0.0504716023972724
0
VERTEX
8
3
6
CONTINUOUS
 10
-0.00509390024194727
 20
-0.0506447024054942
0
VERTEX
8
3
6
CONTINUOUS
 10
-0.00544540025864262
 20
-0.0507514024105621
0
VERTEX
8
3
6
CONTINUOUS
 10
-0.00581100027600769
 20
-0.0507874024122721
0
VERTEX
8
3
6
CONTINUOUS
 10
-0.0489134023232618
 20
-0.0507874024122721
0
VERTEX
8
3
6
CONTINUOUS
 10
-0.0492790023406269
 20
-0.0507514024105621
0
VERTEX
8
3
6
CONTINUOUS
 10
-0.0496305023573223
 20
-0.0506447024054942
0
VERTEX
8
3
6
CONTINUOUS
 10
-0.0499545023727114
 20
-0.0504716023972724
0
VERTEX
8
3
6
CONTINUOUS
 10
-0.0502385023862007
 20
-0.0502385023862007
0
VERTEX
8
3
6
CONTINUOUS
 10
-0.0504716023972724
 20
-0.0499545023727114
0
VERTEX
8
3
6
CONTINUOUS
 10
-0.0506447024054942
 20
-0.0496305023573223
0
VERTEX
8
3
6
CONTINUOUS
 10
-0.0507514024105621
 20
-0.0492790023406269
0
VERTEX
8
3
6
CONTINUOUS
 10
-0.0507874024122721
 20
-0.0489134023232618
0
VERTEX
8
3
6
CONTINUOUS
 10
-0.0507874024122721
 20
-0.00581100027600769
0
VERTEX
8
3
6
CONTINUOUS
 10
-0.0507514024105621
 20
-0.00544540025864262
0
VERTEX
8
3
6
CONTINUOUS
 10
-0.0506447024054942
 20
-0.00509390024194727
0
VERTEX
8
3
6
CONTINUOUS
 10
-0.0504716023972724
 20
-0.00476990022655809
0
VERTEX
8
3
6
CONTINUOUS
 10
-0.0502385023862007
 20
-0.00448590021306882
0
VERTEX
8
3
6
CONTINUOUS
 10
-0.0499545023727114
 20
-0.00425280020199716
0
VERTEX
8
3
6
CONTINUOUS
 10
-0.0496305023573223
 20
-0.00407970019377535
0
VERTEX
8
3
6
CONTINUOUS
 10
-0.0492790023406269
 20
-0.00397300018870737
0
VERTEX
8
3
6
CONTINUOUS
 10
-0.0489134023232618
 20
-0.00393700018699747
0
VERTEX
8
3
6
CONTINUOUS
 10
-0.00581100027600769
 20
-0.00393700018699747
0
VERTEX
8
3
6
CONTINUOUS
 10
-0.00544540025864262
 20
-0.00397300018870737
0
VERTEX
8
3
6
CONTINUOUS
 10
-0.00509390024194727
 20
-0.00407970019377535
0
VERTEX
8
3
6
CONTINUOUS
 10
-0.00476990022655809
 20
-0.00425280020199716
0
VERTEX
8
3
6
CONTINUOUS
 10
-0.00448590021306882
 20
-0.00448590021306882
0
VERTEX
8
3
6
CONTINUOUS
 10
-0.00425280020199716
 20
-0.00476990022655809
0
VERTEX
8
3
6
CONTINUOUS
 10
-0.00407970019377535
 20
-0.00509390024194727
0
VERTEX
8
3
6
CONTINUOUS
 10
-0.00397300018870737
 20
-0.00544540025864262
0
SEQEND
999
##### Poly 50 ####
0
POLYLINE
5
36
70
1
8
3
6
CONTINUOUS
 62
3
66
1
10
0
20
0
0
VERTEX
8
3
6
CONTINUOUS
 10
0.00393700018699747
 20
-0.0489134023232618
0
VERTEX
8
3
6
CONTINUOUS
 10
0.00393700018699747
 20
-0.00581100027600769
0
VERTEX
8
3
6
CONTINUOUS
 10
0.00397300018870737
 20
-0.00544540025864262
0
VERTEX
8
3
6
CONTINUOUS
 10
0.00407970019377535
 20
-0.00509390024194727
0
VERTEX
8
3
6
CONTINUOUS
 10
0.00425280020199716
 20
-0.00476990022655809
0
VERTEX
8
3
6
CONTINUOUS
 10
0.00448590021306882
 20
-0.00448590021306882
0
VERTEX
8
3
6
CONTINUOUS
 10
0.00476990022655809
 20
-0.00425280020199716
0
VERTEX
8
3
6
CONTINUOUS
 10
0.00509390024194727
 20
-0.00407970019377535
0
VERTEX
8
3
6
CONTINUOUS
 10
0.00544540025864262
 20
-0.00397300018870737
0
VERTEX
8
3
6
CONTINUOUS
 10
0.00581100027600769
 20
-0.00393700018699747
0
VERTEX
8
3
6
CONTINUOUS
 10
0.0489134023232618
 20
-0.00393700018699747
0
VERTEX
8
3
6
CONTINUOUS
 10
0.0492790023406269
 20
-0.00397300018870737
0
VERTEX
8
3
6
CONTINUOUS
 10
0.0496305023573223
 20
-0.00407970019377535
0
VERTEX
8
3
6
CONTINUOUS
 10
0.0499545023727114
 20
-0.00425280020199716
0
VERTEX
8
3
6
CONTINUOUS
 10
0.0502385023862007
 20
-0.00448590021306882
0
VERTEX
8
3
6
CONTINUOUS
 10
0.0504716023972724
 20
-0.00476990022655809
0
VERTEX
8
3
6
CONTINUOUS
 10
0.0506447024054942
 20
-0.00509390024194727
0
VERTEX
8
3
6
CONTINUOUS
 10
0.0507514024105621
 20
-0.00544540025864262
0
VERTEX
8
3
6
CONTINUOUS
 10
0.0507874024122721
 20
-0.00581100027600769
0
VERTEX
8
3
6
CONTINUOUS
 10
0.0507874024122721
 20
-0.0489134023232618
0
VERTEX
8
3
6
CONTINUOUS
 10
0.0507514024105621
 20
-0.0492790023406269
0
VERTEX
8
3
6
CONTINUOUS
 10
0.0506447024054942
 20
-0.0496305023573223
0
VERTEX
8
3
6
CONTINUOUS
 10
0.0504716023972724
 20
-0.0499545023727114
0
VERTEX
8
3
6
CONTINUOUS
 10
0.0502385023862007
 20
-0.0502385023862007
0
VERTEX
8
3
6
CONTINUOUS
 10
0.0499545023727114
 20
-0.0504716023972724
0
VERTEX
8
3
6
CONTINUOUS
 10
0.0496305023573223
 20
-0.0506447024054942
0
VERTEX
8
3
6
CONTINUOUS
 10
0.0492790023406269
 20
-0.0507514024105621
0
VERTEX
8
3
6
CONTINUOUS
 10
0.0489134023232618
 20
-0.0507874024122721
0
VERTEX
8
3
6
CONTINUOUS
 10
0.00581100027600769
 20
-0.0507874024122721
0
VERTEX
8
3
6
CONTINUOUS
 10
0.00544540025864262
 20
-0.0507514024105621
0
VERTEX
8
3
6
CONTINUOUS
 10
0.00509390024194727
 20
-0.0506447024054942
0
VERTEX
8
3
6
CONTINUOUS
 10
0.00476990022655809
 20
-0.0504716023972724
0
VERTEX
8
3
6
CONTINUOUS
 10
0.00448590021306882
 20
-0.0502385023862007
0
VERTEX
8
3
6
CONTINUOUS
 10
0.00425280020199716
 20
-0.0499545023727114
0
VERTEX
8
3
6
CONTINUOUS
 10
0.00407970019377535
 20
-0.0496305023573223
0
VERTEX
8
3
6
CONTINUOUS
 10
0.00397300018870737
 20
-0.0492790023406269
0
SEQEND
 999
##### ATTRIBUTE 51 ####
 0
TEXT
 5
36
 8
2
 62
2
 1
RefDes
 10
0
 20
0
 11
0
 21
0
 72
1
 73
2
 39
0.003
 40
0.05
 41
0.5
 50
0
 999
##### ARC 53 ####
 0
SOLID
 62
1
 5
36
 8
1
 10
-0.0519811023964905
 20
0.0482283022907213
 11
-0.0503811023204946
 21
0.0482283022907213
 12
-0.0540530291460168
 22
0.0532303759496713
 13
-0.0529216582423811
 23
0.054361746853307
 999
##### ARC 53 ####
 0
SOLID
 62
1
 5
36
 8
1
 10
-0.0540530291460168
 20
0.0532303759496713
 11
-0.0529216582423811
 21
0.054361746853307
 12
-0.0590551028049667
 22
0.0553023026991976
 13
-0.0590551028049667
 23
0.0569023027751935
 999
##### ARC 53 ####
 0
SOLID
 62
1
 5
36
 8
1
 10
-0.0590551028049667
 20
0.0553023026991976
 11
-0.0590551028049667
 21
0.0569023027751935
 12
-0.0640571764639167
 22
0.0532303759496713
 13
-0.0651885473675524
 23
0.054361746853307
 999
##### ARC 53 ####
 0
SOLID
 62
1
 5
36
 8
1
 10
-0.0640571764639167
 20
0.0532303759496713
 11
-0.0651885473675524
 21
0.054361746853307
 12
-0.066129103213443
 22
0.0482283022907213
 13
-0.0677291032894389
 23
0.0482283022907213
 999
##### ARC 53 ####
 0
SOLID
 62
1
 5
36
 8
1
 10
-0.066129103213443
 20
0.0482283022907213
 11
-0.0677291032894389
 21
0.0482283022907213
 12
-0.0640571764639167
 22
0.0432262286317714
 13
-0.0651885473675524
 23
0.0420948577281357
 999
##### ARC 53 ####
 0
SOLID
 62
1
 5
36
 8
1
 10
-0.0640571764639167
 20
0.0432262286317714
 11
-0.0651885473675524
 21
0.0420948577281357
 12
-0.0590551028049667
 22
0.0411543018822451
 13
-0.0590551028049667
 23
0.0395543018062492
 999
##### ARC 53 ####
 0
SOLID
 62
1
 5
36
 8
1
 10
-0.0590551028049667
 20
0.0411543018822451
 11
-0.0590551028049667
 21
0.0395543018062492
 12
-0.0540530291460168
 22
0.0432262286317714
 13
-0.0529216582423811
 23
0.0420948577281357
 999
##### ARC 53 ####
 0
SOLID
 62
1
 5
36
 8
1
 10
-0.0540530291460168
 20
0.0432262286317714
 11
-0.0529216582423811
 21
0.0420948577281357
 12
-0.0519811023964905
 22
0.0482283022907213
 13
-0.0503811023204946
 23
0.0482283022907213
999
##### Poly 55 ####
0
POLYLINE
5
36
70
1
8
6
6
CONTINUOUS
 62
6
66
1
10
0
20
0
0
VERTEX
8
6
6
CONTINUOUS
 10
-0.0629921031216639
 20
0.0444882020695886
0
VERTEX
8
6
6
CONTINUOUS
 10
-0.0629921031216639
 20
0.0539370026053576
0
VERTEX
8
6
6
CONTINUOUS
 10
-0.0866141039842493
 20
0.0539370026053576
0
VERTEX
8
6
6
CONTINUOUS
 10
-0.0866141039842493
 20
0.0444882020695885
0
SEQEND
999
##### Poly 56 ####
0
POLYLINE
5
36
70
1
8
7
6
CONTINUOUS
 62
7
66
1
10
0
20
0
0
VERTEX
8
7
6
CONTINUOUS
 10
-0.0629921031216639
 20
0.0444882020695886
0
VERTEX
8
7
6
CONTINUOUS
 10
-0.0629921031216639
 20
0.0539370026053576
0
VERTEX
8
7
6
CONTINUOUS
 10
-0.0866141039842493
 20
0.0539370026053576
0
VERTEX
8
7
6
CONTINUOUS
 10
-0.0866141039842493
 20
0.0444882020695885
0
SEQEND
999
##### Poly 57 ####
0
POLYLINE
5
36
70
1
8
3
6
CONTINUOUS
 62
3
66
1
10
0
20
0
0
VERTEX
8
3
6
CONTINUOUS
 10
-0.0629921031216639
 20
0.0444882020695886
0
VERTEX
8
3
6
CONTINUOUS
 10
-0.0629921031216639
 20
0.0539370026053576
0
VERTEX
8
3
6
CONTINUOUS
 10
-0.0866141039842493
 20
0.0539370026053576
0
VERTEX
8
3
6
CONTINUOUS
 10
-0.0866141039842493
 20
0.0444882020695885
0
SEQEND
999
##### Poly 58 ####
0
POLYLINE
5
36
70
1
8
6
6
CONTINUOUS
 62
6
66
1
10
0
20
0
0
VERTEX
8
6
6
CONTINUOUS
 10
-0.0629921031216639
 20
0.0248032011346012
0
VERTEX
8
6
6
CONTINUOUS
 10
-0.0629921031216639
 20
0.0342520016703703
0
VERTEX
8
6
6
CONTINUOUS
 10
-0.0866141039842493
 20
0.0342520016703703
0
VERTEX
8
6
6
CONTINUOUS
 10
-0.0866141039842493
 20
0.0248032011346012
0
SEQEND
999
##### Poly 59 ####
0
POLYLINE
5
36
70
1
8
7
6
CONTINUOUS
 62
7
66
1
10
0
20
0
0
VERTEX
8
7
6
CONTINUOUS
 10
-0.0629921031216639
 20
0.0248032011346012
0
VERTEX
8
7
6
CONTINUOUS
 10
-0.0629921031216639
 20
0.0342520016703703
0
VERTEX
8
7
6
CONTINUOUS
 10
-0.0866141039842493
 20
0.0342520016703703
0
VERTEX
8
7
6
CONTINUOUS
 10
-0.0866141039842493
 20
0.0248032011346012
0
SEQEND
999
##### Poly 60 ####
0
POLYLINE
5
36
70
1
8
3
6
CONTINUOUS
 62
3
66
1
10
0
20
0
0
VERTEX
8
3
6
CONTINUOUS
 10
-0.0629921031216639
 20
0.0248032011346012
0
VERTEX
8
3
6
CONTINUOUS
 10
-0.0629921031216639
 20
0.0342520016703703
0
VERTEX
8
3
6
CONTINUOUS
 10
-0.0866141039842493
 20
0.0342520016703703
0
VERTEX
8
3
6
CONTINUOUS
 10
-0.0866141039842493
 20
0.0248032011346012
0
SEQEND
999
##### Poly 61 ####
0
POLYLINE
5
36
70
1
8
6
6
CONTINUOUS
 62
6
66
1
10
0
20
0
0
VERTEX
8
6
6
CONTINUOUS
 10
-0.0629921031216639
 20
0.00511810019960917
0
VERTEX
8
6
6
CONTINUOUS
 10
-0.0629921031216639
 20
0.0145669007353782
0
VERTEX
8
6
6
CONTINUOUS
 10
-0.0866141039842493
 20
0.0145669007353782
0
VERTEX
8
6
6
CONTINUOUS
 10
-0.0866141039842493
 20
0.00511810019960913
0
SEQEND
999
##### Poly 62 ####
0
POLYLINE
5
36
70
1
8
7
6
CONTINUOUS
 62
7
66
1
10
0
20
0
0
VERTEX
8
7
6
CONTINUOUS
 10
-0.0629921031216639
 20
0.00511810019960917
0
VERTEX
8
7
6
CONTINUOUS
 10
-0.0629921031216639
 20
0.0145669007353782
0
VERTEX
8
7
6
CONTINUOUS
 10
-0.0866141039842493
 20
0.0145669007353782
0
VERTEX
8
7
6
CONTINUOUS
 10
-0.0866141039842493
 20
0.00511810019960913
0
SEQEND
999
##### Poly 63 ####
0
POLYLINE
5
36
70
1
8
3
6
CONTINUOUS
 62
3
66
1
10
0
20
0
0
VERTEX
8
3
6
CONTINUOUS
 10
-0.0629921031216639
 20
0.00511810019960917
0
VERTEX
8
3
6
CONTINUOUS
 10
-0.0629921031216639
 20
0.0145669007353782
0
VERTEX
8
3
6
CONTINUOUS
 10
-0.0866141039842493
 20
0.0145669007353782
0
VERTEX
8
3
6
CONTINUOUS
 10
-0.0866141039842493
 20
0.00511810019960913
0
SEQEND
999
##### Poly 64 ####
0
POLYLINE
5
36
70
1
8
6
6
CONTINUOUS
 62
6
66
1
10
0
20
0
0
VERTEX
8
6
6
CONTINUOUS
 10
-0.0629921031216639
 20
-0.0145669007353782
0
VERTEX
8
6
6
CONTINUOUS
 10
-0.0629921031216639
 20
-0.00511810019960912
0
VERTEX
8
6
6
CONTINUOUS
 10
-0.0866141039842493
 20
-0.00511810019960915
0
VERTEX
8
6
6
CONTINUOUS
 10
-0.0866141039842493
 20
-0.0145669007353782
0
SEQEND
999
##### Poly 65 ####
0
POLYLINE
5
36
70
1
8
7
6
CONTINUOUS
 62
7
66
1
10
0
20
0
0
VERTEX
8
7
6
CONTINUOUS
 10
-0.0629921031216639
 20
-0.0145669007353782
0
VERTEX
8
7
6
CONTINUOUS
 10
-0.0629921031216639
 20
-0.00511810019960912
0
VERTEX
8
7
6
CONTINUOUS
 10
-0.0866141039842493
 20
-0.00511810019960915
0
VERTEX
8
7
6
CONTINUOUS
 10
-0.0866141039842493
 20
-0.0145669007353782
0
SEQEND
999
##### Poly 66 ####
0
POLYLINE
5
36
70
1
8
3
6
CONTINUOUS
 62
3
66
1
10
0
20
0
0
VERTEX
8
3
6
CONTINUOUS
 10
-0.0629921031216639
 20
-0.0145669007353782
0
VERTEX
8
3
6
CONTINUOUS
 10
-0.0629921031216639
 20
-0.00511810019960912
0
VERTEX
8
3
6
CONTINUOUS
 10
-0.0866141039842493
 20
-0.00511810019960915
0
VERTEX
8
3
6
CONTINUOUS
 10
-0.0866141039842493
 20
-0.0145669007353782
0
SEQEND
999
##### Poly 67 ####
0
POLYLINE
5
36
70
1
8
6
6
CONTINUOUS
 62
6
66
1
10
0
20
0
0
VERTEX
8
6
6
CONTINUOUS
 10
-0.0629921031216639
 20
-0.0342520016703702
0
VERTEX
8
6
6
CONTINUOUS
 10
-0.0629921031216639
 20
-0.0248032011346012
0
VERTEX
8
6
6
CONTINUOUS
 10
-0.0866141039842493
 20
-0.0248032011346012
0
VERTEX
8
6
6
CONTINUOUS
 10
-0.0866141039842493
 20
-0.0342520016703703
0
SEQEND
999
##### Poly 68 ####
0
POLYLINE
5
36
70
1
8
7
6
CONTINUOUS
 62
7
66
1
10
0
20
0
0
VERTEX
8
7
6
CONTINUOUS
 10
-0.0629921031216639
 20
-0.0342520016703702
0
VERTEX
8
7
6
CONTINUOUS
 10
-0.0629921031216639
 20
-0.0248032011346012
0
VERTEX
8
7
6
CONTINUOUS
 10
-0.0866141039842493
 20
-0.0248032011346012
0
VERTEX
8
7
6
CONTINUOUS
 10
-0.0866141039842493
 20
-0.0342520016703703
0
SEQEND
999
##### Poly 69 ####
0
POLYLINE
5
36
70
1
8
3
6
CONTINUOUS
 62
3
66
1
10
0
20
0
0
VERTEX
8
3
6
CONTINUOUS
 10
-0.0629921031216639
 20
-0.0342520016703702
0
VERTEX
8
3
6
CONTINUOUS
 10
-0.0629921031216639
 20
-0.0248032011346012
0
VERTEX
8
3
6
CONTINUOUS
 10
-0.0866141039842493
 20
-0.0248032011346012
0
VERTEX
8
3
6
CONTINUOUS
 10
-0.0866141039842493
 20
-0.0342520016703703
0
SEQEND
999
##### Poly 70 ####
0
POLYLINE
5
36
70
1
8
6
6
CONTINUOUS
 62
6
66
1
10
0
20
0
0
VERTEX
8
6
6
CONTINUOUS
 10
-0.0629921031216639
 20
-0.0539370026053576
0
VERTEX
8
6
6
CONTINUOUS
 10
-0.0629921031216639
 20
-0.0444882020695885
0
VERTEX
8
6
6
CONTINUOUS
 10
-0.0866141039842493
 20
-0.0444882020695886
0
VERTEX
8
6
6
CONTINUOUS
 10
-0.0866141039842493
 20
-0.0539370026053576
0
SEQEND
999
##### Poly 71 ####
0
POLYLINE
5
36
70
1
8
7
6
CONTINUOUS
 62
7
66
1
10
0
20
0
0
VERTEX
8
7
6
CONTINUOUS
 10
-0.0629921031216639
 20
-0.0539370026053576
0
VERTEX
8
7
6
CONTINUOUS
 10
-0.0629921031216639
 20
-0.0444882020695885
0
VERTEX
8
7
6
CONTINUOUS
 10
-0.0866141039842493
 20
-0.0444882020695886
0
VERTEX
8
7
6
CONTINUOUS
 10
-0.0866141039842493
 20
-0.0539370026053576
0
SEQEND
999
##### Poly 72 ####
0
POLYLINE
5
36
70
1
8
3
6
CONTINUOUS
 62
3
66
1
10
0
20
0
0
VERTEX
8
3
6
CONTINUOUS
 10
-0.0629921031216639
 20
-0.0539370026053576
0
VERTEX
8
3
6
CONTINUOUS
 10
-0.0629921031216639
 20
-0.0444882020695885
0
VERTEX
8
3
6
CONTINUOUS
 10
-0.0866141039842493
 20
-0.0444882020695886
0
VERTEX
8
3
6
CONTINUOUS
 10
-0.0866141039842493
 20
-0.0539370026053576
0
SEQEND
999
##### Poly 73 ####
0
POLYLINE
5
36
70
1
8
6
6
CONTINUOUS
 62
6
66
1
10
0
20
0
0
VERTEX
8
6
6
CONTINUOUS
 10
-0.0539370026053576
 20
-0.0866141039842493
0
VERTEX
8
6
6
CONTINUOUS
 10
-0.0444882020695886
 20
-0.0866141039842493
0
VERTEX
8
6
6
CONTINUOUS
 10
-0.0444882020695886
 20
-0.0629921031216639
0
VERTEX
8
6
6
CONTINUOUS
 10
-0.0539370026053576
 20
-0.0629921031216639
0
SEQEND
999
##### Poly 74 ####
0
POLYLINE
5
36
70
1
8
7
6
CONTINUOUS
 62
7
66
1
10
0
20
0
0
VERTEX
8
7
6
CONTINUOUS
 10
-0.0539370026053576
 20
-0.0866141039842493
0
VERTEX
8
7
6
CONTINUOUS
 10
-0.0444882020695886
 20
-0.0866141039842493
0
VERTEX
8
7
6
CONTINUOUS
 10
-0.0444882020695886
 20
-0.0629921031216639
0
VERTEX
8
7
6
CONTINUOUS
 10
-0.0539370026053576
 20
-0.0629921031216639
0
SEQEND
999
##### Poly 75 ####
0
POLYLINE
5
36
70
1
8
3
6
CONTINUOUS
 62
3
66
1
10
0
20
0
0
VERTEX
8
3
6
CONTINUOUS
 10
-0.0539370026053576
 20
-0.0866141039842493
0
VERTEX
8
3
6
CONTINUOUS
 10
-0.0444882020695886
 20
-0.0866141039842493
0
VERTEX
8
3
6
CONTINUOUS
 10
-0.0444882020695886
 20
-0.0629921031216639
0
VERTEX
8
3
6
CONTINUOUS
 10
-0.0539370026053576
 20
-0.0629921031216639
0
SEQEND
999
##### Poly 76 ####
0
POLYLINE
5
36
70
1
8
6
6
CONTINUOUS
 62
6
66
1
10
0
20
0
0
VERTEX
8
6
6
CONTINUOUS
 10
-0.0342520016703702
 20
-0.0866141039842493
0
VERTEX
8
6
6
CONTINUOUS
 10
-0.0248032011346012
 20
-0.0866141039842493
0
VERTEX
8
6
6
CONTINUOUS
 10
-0.0248032011346012
 20
-0.0629921031216639
0
VERTEX
8
6
6
CONTINUOUS
 10
-0.0342520016703703
 20
-0.0629921031216639
0
SEQEND
999
##### Poly 77 ####
0
POLYLINE
5
36
70
1
8
7
6
CONTINUOUS
 62
7
66
1
10
0
20
0
0
VERTEX
8
7
6
CONTINUOUS
 10
-0.0342520016703702
 20
-0.0866141039842493
0
VERTEX
8
7
6
CONTINUOUS
 10
-0.0248032011346012
 20
-0.0866141039842493
0
VERTEX
8
7
6
CONTINUOUS
 10
-0.0248032011346012
 20
-0.0629921031216639
0
VERTEX
8
7
6
CONTINUOUS
 10
-0.0342520016703703
 20
-0.0629921031216639
0
SEQEND
999
##### Poly 78 ####
0
POLYLINE
5
36
70
1
8
3
6
CONTINUOUS
 62
3
66
1
10
0
20
0
0
VERTEX
8
3
6
CONTINUOUS
 10
-0.0342520016703702
 20
-0.0866141039842493
0
VERTEX
8
3
6
CONTINUOUS
 10
-0.0248032011346012
 20
-0.0866141039842493
0
VERTEX
8
3
6
CONTINUOUS
 10
-0.0248032011346012
 20
-0.0629921031216639
0
VERTEX
8
3
6
CONTINUOUS
 10
-0.0342520016703703
 20
-0.0629921031216639
0
SEQEND
999
##### Poly 79 ####
0
POLYLINE
5
36
70
1
8
6
6
CONTINUOUS
 62
6
66
1
10
0
20
0
0
VERTEX
8
6
6
CONTINUOUS
 10
-0.0145669007353782
 20
-0.0866141039842493
0
VERTEX
8
6
6
CONTINUOUS
 10
-0.00511810019960914
 20
-0.0866141039842493
0
VERTEX
8
6
6
CONTINUOUS
 10
-0.00511810019960915
 20
-0.0629921031216639
0
VERTEX
8
6
6
CONTINUOUS
 10
-0.0145669007353782
 20
-0.0629921031216639
0
SEQEND
999
##### Poly 80 ####
0
POLYLINE
5
36
70
1
8
7
6
CONTINUOUS
 62
7
66
1
10
0
20
0
0
VERTEX
8
7
6
CONTINUOUS
 10
-0.0145669007353782
 20
-0.0866141039842493
0
VERTEX
8
7
6
CONTINUOUS
 10
-0.00511810019960914
 20
-0.0866141039842493
0
VERTEX
8
7
6
CONTINUOUS
 10
-0.00511810019960915
 20
-0.0629921031216639
0
VERTEX
8
7
6
CONTINUOUS
 10
-0.0145669007353782
 20
-0.0629921031216639
0
SEQEND
999
##### Poly 81 ####
0
POLYLINE
5
36
70
1
8
3
6
CONTINUOUS
 62
3
66
1
10
0
20
0
0
VERTEX
8
3
6
CONTINUOUS
 10
-0.0145669007353782
 20
-0.0866141039842493
0
VERTEX
8
3
6
CONTINUOUS
 10
-0.00511810019960914
 20
-0.0866141039842493
0
VERTEX
8
3
6
CONTINUOUS
 10
-0.00511810019960915
 20
-0.0629921031216639
0
VERTEX
8
3
6
CONTINUOUS
 10
-0.0145669007353782
 20
-0.0629921031216639
0
SEQEND
999
##### Poly 82 ####
0
POLYLINE
5
36
70
1
8
6
6
CONTINUOUS
 62
6
66
1
10
0
20
0
0
VERTEX
8
6
6
CONTINUOUS
 10
0.00511810019960916
 20
-0.0866141039842493
0
VERTEX
8
6
6
CONTINUOUS
 10
0.0145669007353782
 20
-0.0866141039842493
0
VERTEX
8
6
6
CONTINUOUS
 10
0.0145669007353782
 20
-0.0629921031216639
0
VERTEX
8
6
6
CONTINUOUS
 10
0.00511810019960914
 20
-0.0629921031216639
0
SEQEND
999
##### Poly 83 ####
0
POLYLINE
5
36
70
1
8
7
6
CONTINUOUS
 62
7
66
1
10
0
20
0
0
VERTEX
8
7
6
CONTINUOUS
 10
0.00511810019960916
 20
-0.0866141039842493
0
VERTEX
8
7
6
CONTINUOUS
 10
0.0145669007353782
 20
-0.0866141039842493
0
VERTEX
8
7
6
CONTINUOUS
 10
0.0145669007353782
 20
-0.0629921031216639
0
VERTEX
8
7
6
CONTINUOUS
 10
0.00511810019960914
 20
-0.0629921031216639
0
SEQEND
999
##### Poly 84 ####
0
POLYLINE
5
36
70
1
8
3
6
CONTINUOUS
 62
3
66
1
10
0
20
0
0
VERTEX
8
3
6
CONTINUOUS
 10
0.00511810019960916
 20
-0.0866141039842493
0
VERTEX
8
3
6
CONTINUOUS
 10
0.0145669007353782
 20
-0.0866141039842493
0
VERTEX
8
3
6
CONTINUOUS
 10
0.0145669007353782
 20
-0.0629921031216639
0
VERTEX
8
3
6
CONTINUOUS
 10
0.00511810019960914
 20
-0.0629921031216639
0
SEQEND
999
##### Poly 85 ####
0
POLYLINE
5
36
70
1
8
6
6
CONTINUOUS
 62
6
66
1
10
0
20
0
0
VERTEX
8
6
6
CONTINUOUS
 10
0.0248032011346012
 20
-0.0866141039842493
0
VERTEX
8
6
6
CONTINUOUS
 10
0.0342520016703703
 20
-0.0866141039842493
0
VERTEX
8
6
6
CONTINUOUS
 10
0.0342520016703703
 20
-0.0629921031216639
0
VERTEX
8
6
6
CONTINUOUS
 10
0.0248032011346012
 20
-0.0629921031216639
0
SEQEND
999
##### Poly 86 ####
0
POLYLINE
5
36
70
1
8
7
6
CONTINUOUS
 62
7
66
1
10
0
20
0
0
VERTEX
8
7
6
CONTINUOUS
 10
0.0248032011346012
 20
-0.0866141039842493
0
VERTEX
8
7
6
CONTINUOUS
 10
0.0342520016703703
 20
-0.0866141039842493
0
VERTEX
8
7
6
CONTINUOUS
 10
0.0342520016703703
 20
-0.0629921031216639
0
VERTEX
8
7
6
CONTINUOUS
 10
0.0248032011346012
 20
-0.0629921031216639
0
SEQEND
999
##### Poly 87 ####
0
POLYLINE
5
36
70
1
8
3
6
CONTINUOUS
 62
3
66
1
10
0
20
0
0
VERTEX
8
3
6
CONTINUOUS
 10
0.0248032011346012
 20
-0.0866141039842493
0
VERTEX
8
3
6
CONTINUOUS
 10
0.0342520016703703
 20
-0.0866141039842493
0
VERTEX
8
3
6
CONTINUOUS
 10
0.0342520016703703
 20
-0.0629921031216639
0
VERTEX
8
3
6
CONTINUOUS
 10
0.0248032011346012
 20
-0.0629921031216639
0
SEQEND
999
##### Poly 88 ####
0
POLYLINE
5
36
70
1
8
6
6
CONTINUOUS
 62
6
66
1
10
0
20
0
0
VERTEX
8
6
6
CONTINUOUS
 10
0.0444882020695886
 20
-0.0866141039842493
0
VERTEX
8
6
6
CONTINUOUS
 10
0.0539370026053576
 20
-0.0866141039842493
0
VERTEX
8
6
6
CONTINUOUS
 10
0.0539370026053576
 20
-0.0629921031216639
0
VERTEX
8
6
6
CONTINUOUS
 10
0.0444882020695886
 20
-0.0629921031216639
0
SEQEND
999
##### Poly 89 ####
0
POLYLINE
5
36
70
1
8
7
6
CONTINUOUS
 62
7
66
1
10
0
20
0
0
VERTEX
8
7
6
CONTINUOUS
 10
0.0444882020695886
 20
-0.0866141039842493
0
VERTEX
8
7
6
CONTINUOUS
 10
0.0539370026053576
 20
-0.0866141039842493
0
VERTEX
8
7
6
CONTINUOUS
 10
0.0539370026053576
 20
-0.0629921031216639
0
VERTEX
8
7
6
CONTINUOUS
 10
0.0444882020695886
 20
-0.0629921031216639
0
SEQEND
999
##### Poly 90 ####
0
POLYLINE
5
36
70
1
8
3
6
CONTINUOUS
 62
3
66
1
10
0
20
0
0
VERTEX
8
3
6
CONTINUOUS
 10
0.0444882020695886
 20
-0.0866141039842493
0
VERTEX
8
3
6
CONTINUOUS
 10
0.0539370026053576
 20
-0.0866141039842493
0
VERTEX
8
3
6
CONTINUOUS
 10
0.0539370026053576
 20
-0.0629921031216639
0
VERTEX
8
3
6
CONTINUOUS
 10
0.0444882020695886
 20
-0.0629921031216639
0
SEQEND
999
##### Poly 91 ####
0
POLYLINE
5
36
70
1
8
6
6
CONTINUOUS
 62
6
66
1
10
0
20
0
0
VERTEX
8
6
6
CONTINUOUS
 10
0.0866141039842493
 20
-0.0539370026053576
0
VERTEX
8
6
6
CONTINUOUS
 10
0.0866141039842493
 20
-0.0444882020695885
0
VERTEX
8
6
6
CONTINUOUS
 10
0.0629921031216639
 20
-0.0444882020695886
0
VERTEX
8
6
6
CONTINUOUS
 10
0.0629921031216639
 20
-0.0539370026053576
0
SEQEND
999
##### Poly 92 ####
0
POLYLINE
5
36
70
1
8
7
6
CONTINUOUS
 62
7
66
1
10
0
20
0
0
VERTEX
8
7
6
CONTINUOUS
 10
0.0866141039842493
 20
-0.0539370026053576
0
VERTEX
8
7
6
CONTINUOUS
 10
0.0866141039842493
 20
-0.0444882020695885
0
VERTEX
8
7
6
CONTINUOUS
 10
0.0629921031216639
 20
-0.0444882020695886
0
VERTEX
8
7
6
CONTINUOUS
 10
0.0629921031216639
 20
-0.0539370026053576
0
SEQEND
999
##### Poly 93 ####
0
POLYLINE
5
36
70
1
8
3
6
CONTINUOUS
 62
3
66
1
10
0
20
0
0
VERTEX
8
3
6
CONTINUOUS
 10
0.0866141039842493
 20
-0.0539370026053576
0
VERTEX
8
3
6
CONTINUOUS
 10
0.0866141039842493
 20
-0.0444882020695885
0
VERTEX
8
3
6
CONTINUOUS
 10
0.0629921031216639
 20
-0.0444882020695886
0
VERTEX
8
3
6
CONTINUOUS
 10
0.0629921031216639
 20
-0.0539370026053576
0
SEQEND
999
##### Poly 94 ####
0
POLYLINE
5
36
70
1
8
6
6
CONTINUOUS
 62
6
66
1
10
0
20
0
0
VERTEX
8
6
6
CONTINUOUS
 10
0.0866141039842493
 20
-0.0342520016703702
0
VERTEX
8
6
6
CONTINUOUS
 10
0.0866141039842493
 20
-0.0248032011346012
0
VERTEX
8
6
6
CONTINUOUS
 10
0.0629921031216639
 20
-0.0248032011346012
0
VERTEX
8
6
6
CONTINUOUS
 10
0.0629921031216639
 20
-0.0342520016703703
0
SEQEND
999
##### Poly 95 ####
0
POLYLINE
5
36
70
1
8
7
6
CONTINUOUS
 62
7
66
1
10
0
20
0
0
VERTEX
8
7
6
CONTINUOUS
 10
0.0866141039842493
 20
-0.0342520016703702
0
VERTEX
8
7
6
CONTINUOUS
 10
0.0866141039842493
 20
-0.0248032011346012
0
VERTEX
8
7
6
CONTINUOUS
 10
0.0629921031216639
 20
-0.0248032011346012
0
VERTEX
8
7
6
CONTINUOUS
 10
0.0629921031216639
 20
-0.0342520016703703
0
SEQEND
999
##### Poly 96 ####
0
POLYLINE
5
36
70
1
8
3
6
CONTINUOUS
 62
3
66
1
10
0
20
0
0
VERTEX
8
3
6
CONTINUOUS
 10
0.0866141039842493
 20
-0.0342520016703702
0
VERTEX
8
3
6
CONTINUOUS
 10
0.0866141039842493
 20
-0.0248032011346012
0
VERTEX
8
3
6
CONTINUOUS
 10
0.0629921031216639
 20
-0.0248032011346012
0
VERTEX
8
3
6
CONTINUOUS
 10
0.0629921031216639
 20
-0.0342520016703703
0
SEQEND
999
##### Poly 97 ####
0
POLYLINE
5
36
70
1
8
6
6
CONTINUOUS
 62
6
66
1
10
0
20
0
0
VERTEX
8
6
6
CONTINUOUS
 10
0.0866141039842493
 20
-0.0145669007353782
0
VERTEX
8
6
6
CONTINUOUS
 10
0.0866141039842493
 20
-0.00511810019960912
0
VERTEX
8
6
6
CONTINUOUS
 10
0.0629921031216639
 20
-0.00511810019960915
0
VERTEX
8
6
6
CONTINUOUS
 10
0.0629921031216639
 20
-0.0145669007353782
0
SEQEND
999
##### Poly 98 ####
0
POLYLINE
5
36
70
1
8
7
6
CONTINUOUS
 62
7
66
1
10
0
20
0
0
VERTEX
8
7
6
CONTINUOUS
 10
0.0866141039842493
 20
-0.0145669007353782
0
VERTEX
8
7
6
CONTINUOUS
 10
0.0866141039842493
 20
-0.00511810019960912
0
VERTEX
8
7
6
CONTINUOUS
 10
0.0629921031216639
 20
-0.00511810019960915
0
VERTEX
8
7
6
CONTINUOUS
 10
0.0629921031216639
 20
-0.0145669007353782
0
SEQEND
999
##### Poly 99 ####
0
POLYLINE
5
36
70
1
8
3
6
CONTINUOUS
 62
3
66
1
10
0
20
0
0
VERTEX
8
3
6
CONTINUOUS
 10
0.0866141039842493
 20
-0.0145669007353782
0
VERTEX
8
3
6
CONTINUOUS
 10
0.0866141039842493
 20
-0.00511810019960912
0
VERTEX
8
3
6
CONTINUOUS
 10
0.0629921031216639
 20
-0.00511810019960915
0
VERTEX
8
3
6
CONTINUOUS
 10
0.0629921031216639
 20
-0.0145669007353782
0
SEQEND
999
##### Poly 100 ####
0
POLYLINE
5
36
70
1
8
6
6
CONTINUOUS
 62
6
66
1
10
0
20
0
0
VERTEX
8
6
6
CONTINUOUS
 10
0.0866141039842493
 20
0.00511810019960917
0
VERTEX
8
6
6
CONTINUOUS
 10
0.0866141039842493
 20
0.0145669007353782
0
VERTEX
8
6
6
CONTINUOUS
 10
0.0629921031216639
 20
0.0145669007353782
0
VERTEX
8
6
6
CONTINUOUS
 10
0.0629921031216639
 20
0.00511810019960913
0
SEQEND
999
##### Poly 101 ####
0
POLYLINE
5
36
70
1
8
7
6
CONTINUOUS
 62
7
66
1
10
0
20
0
0
VERTEX
8
7
6
CONTINUOUS
 10
0.0866141039842493
 20
0.00511810019960917
0
VERTEX
8
7
6
CONTINUOUS
 10
0.0866141039842493
 20
0.0145669007353782
0
VERTEX
8
7
6
CONTINUOUS
 10
0.0629921031216639
 20
0.0145669007353782
0
VERTEX
8
7
6
CONTINUOUS
 10
0.0629921031216639
 20
0.00511810019960913
0
SEQEND
999
##### Poly 102 ####
0
POLYLINE
5
36
70
1
8
3
6
CONTINUOUS
 62
3
66
1
10
0
20
0
0
VERTEX
8
3
6
CONTINUOUS
 10
0.0866141039842493
 20
0.00511810019960917
0
VERTEX
8
3
6
CONTINUOUS
 10
0.0866141039842493
 20
0.0145669007353782
0
VERTEX
8
3
6
CONTINUOUS
 10
0.0629921031216639
 20
0.0145669007353782
0
VERTEX
8
3
6
CONTINUOUS
 10
0.0629921031216639
 20
0.00511810019960913
0
SEQEND
999
##### Poly 103 ####
0
POLYLINE
5
36
70
1
8
6
6
CONTINUOUS
 62
6
66
1
10
0
20
0
0
VERTEX
8
6
6
CONTINUOUS
 10
0.0866141039842493
 20
0.0248032011346012
0
VERTEX
8
6
6
CONTINUOUS
 10
0.0866141039842493
 20
0.0342520016703703
0
VERTEX
8
6
6
CONTINUOUS
 10
0.0629921031216639
 20
0.0342520016703703
0
VERTEX
8
6
6
CONTINUOUS
 10
0.0629921031216639
 20
0.0248032011346012
0
SEQEND
999
##### Poly 104 ####
0
POLYLINE
5
36
70
1
8
7
6
CONTINUOUS
 62
7
66
1
10
0
20
0
0
VERTEX
8
7
6
CONTINUOUS
 10
0.0866141039842493
 20
0.0248032011346012
0
VERTEX
8
7
6
CONTINUOUS
 10
0.0866141039842493
 20
0.0342520016703703
0
VERTEX
8
7
6
CONTINUOUS
 10
0.0629921031216639
 20
0.0342520016703703
0
VERTEX
8
7
6
CONTINUOUS
 10
0.0629921031216639
 20
0.0248032011346012
0
SEQEND
999
##### Poly 105 ####
0
POLYLINE
5
36
70
1
8
3
6
CONTINUOUS
 62
3
66
1
10
0
20
0
0
VERTEX
8
3
6
CONTINUOUS
 10
0.0866141039842493
 20
0.0248032011346012
0
VERTEX
8
3
6
CONTINUOUS
 10
0.0866141039842493
 20
0.0342520016703703
0
VERTEX
8
3
6
CONTINUOUS
 10
0.0629921031216639
 20
0.0342520016703703
0
VERTEX
8
3
6
CONTINUOUS
 10
0.0629921031216639
 20
0.0248032011346012
0
SEQEND
999
##### Poly 106 ####
0
POLYLINE
5
36
70
1
8
6
6
CONTINUOUS
 62
6
66
1
10
0
20
0
0
VERTEX
8
6
6
CONTINUOUS
 10
0.0866141039842493
 20
0.0444882020695886
0
VERTEX
8
6
6
CONTINUOUS
 10
0.0866141039842493
 20
0.0539370026053576
0
VERTEX
8
6
6
CONTINUOUS
 10
0.0629921031216639
 20
0.0539370026053576
0
VERTEX
8
6
6
CONTINUOUS
 10
0.0629921031216639
 20
0.0444882020695885
0
SEQEND
999
##### Poly 107 ####
0
POLYLINE
5
36
70
1
8
7
6
CONTINUOUS
 62
7
66
1
10
0
20
0
0
VERTEX
8
7
6
CONTINUOUS
 10
0.0866141039842493
 20
0.0444882020695886
0
VERTEX
8
7
6
CONTINUOUS
 10
0.0866141039842493
 20
0.0539370026053576
0
VERTEX
8
7
6
CONTINUOUS
 10
0.0629921031216639
 20
0.0539370026053576
0
VERTEX
8
7
6
CONTINUOUS
 10
0.0629921031216639
 20
0.0444882020695885
0
SEQEND
999
##### Poly 108 ####
0
POLYLINE
5
36
70
1
8
3
6
CONTINUOUS
 62
3
66
1
10
0
20
0
0
VERTEX
8
3
6
CONTINUOUS
 10
0.0866141039842493
 20
0.0444882020695886
0
VERTEX
8
3
6
CONTINUOUS
 10
0.0866141039842493
 20
0.0539370026053576
0
VERTEX
8
3
6
CONTINUOUS
 10
0.0629921031216639
 20
0.0539370026053576
0
VERTEX
8
3
6
CONTINUOUS
 10
0.0629921031216639
 20
0.0444882020695885
0
SEQEND
999
##### Poly 109 ####
0
POLYLINE
5
36
70
1
8
6
6
CONTINUOUS
 62
6
66
1
10
0
20
0
0
VERTEX
8
6
6
CONTINUOUS
 10
0.0444882020695886
 20
0.0629921031216639
0
VERTEX
8
6
6
CONTINUOUS
 10
0.0539370026053576
 20
0.0629921031216639
0
VERTEX
8
6
6
CONTINUOUS
 10
0.0539370026053576
 20
0.0866141039842493
0
VERTEX
8
6
6
CONTINUOUS
 10
0.0444882020695886
 20
0.0866141039842493
0
SEQEND
999
##### Poly 110 ####
0
POLYLINE
5
36
70
1
8
7
6
CONTINUOUS
 62
7
66
1
10
0
20
0
0
VERTEX
8
7
6
CONTINUOUS
 10
0.0444882020695886
 20
0.0629921031216639
0
VERTEX
8
7
6
CONTINUOUS
 10
0.0539370026053576
 20
0.0629921031216639
0
VERTEX
8
7
6
CONTINUOUS
 10
0.0539370026053576
 20
0.0866141039842493
0
VERTEX
8
7
6
CONTINUOUS
 10
0.0444882020695886
 20
0.0866141039842493
0
SEQEND
999
##### Poly 111 ####
0
POLYLINE
5
36
70
1
8
3
6
CONTINUOUS
 62
3
66
1
10
0
20
0
0
VERTEX
8
3
6
CONTINUOUS
 10
0.0444882020695886
 20
0.0629921031216639
0
VERTEX
8
3
6
CONTINUOUS
 10
0.0539370026053576
 20
0.0629921031216639
0
VERTEX
8
3
6
CONTINUOUS
 10
0.0539370026053576
 20
0.0866141039842493
0
VERTEX
8
3
6
CONTINUOUS
 10
0.0444882020695886
 20
0.0866141039842493
0
SEQEND
999
##### Poly 112 ####
0
POLYLINE
5
36
70
1
8
6
6
CONTINUOUS
 62
6
66
1
10
0
20
0
0
VERTEX
8
6
6
CONTINUOUS
 10
0.0248032011346012
 20
0.0629921031216639
0
VERTEX
8
6
6
CONTINUOUS
 10
0.0342520016703703
 20
0.0629921031216639
0
VERTEX
8
6
6
CONTINUOUS
 10
0.0342520016703703
 20
0.0866141039842493
0
VERTEX
8
6
6
CONTINUOUS
 10
0.0248032011346012
 20
0.0866141039842493
0
SEQEND
999
##### Poly 113 ####
0
POLYLINE
5
36
70
1
8
7
6
CONTINUOUS
 62
7
66
1
10
0
20
0
0
VERTEX
8
7
6
CONTINUOUS
 10
0.0248032011346012
 20
0.0629921031216639
0
VERTEX
8
7
6
CONTINUOUS
 10
0.0342520016703703
 20
0.0629921031216639
0
VERTEX
8
7
6
CONTINUOUS
 10
0.0342520016703703
 20
0.0866141039842493
0
VERTEX
8
7
6
CONTINUOUS
 10
0.0248032011346012
 20
0.0866141039842493
0
SEQEND
999
##### Poly 114 ####
0
POLYLINE
5
36
70
1
8
3
6
CONTINUOUS
 62
3
66
1
10
0
20
0
0
VERTEX
8
3
6
CONTINUOUS
 10
0.0248032011346012
 20
0.0629921031216639
0
VERTEX
8
3
6
CONTINUOUS
 10
0.0342520016703703
 20
0.0629921031216639
0
VERTEX
8
3
6
CONTINUOUS
 10
0.0342520016703703
 20
0.0866141039842493
0
VERTEX
8
3
6
CONTINUOUS
 10
0.0248032011346012
 20
0.0866141039842493
0
SEQEND
999
##### Poly 115 ####
0
POLYLINE
5
36
70
1
8
6
6
CONTINUOUS
 62
6
66
1
10
0
20
0
0
VERTEX
8
6
6
CONTINUOUS
 10
0.00511810019960916
 20
0.0629921031216639
0
VERTEX
8
6
6
CONTINUOUS
 10
0.0145669007353782
 20
0.0629921031216639
0
VERTEX
8
6
6
CONTINUOUS
 10
0.0145669007353782
 20
0.0866141039842493
0
VERTEX
8
6
6
CONTINUOUS
 10
0.00511810019960914
 20
0.0866141039842493
0
SEQEND
999
##### Poly 116 ####
0
POLYLINE
5
36
70
1
8
7
6
CONTINUOUS
 62
7
66
1
10
0
20
0
0
VERTEX
8
7
6
CONTINUOUS
 10
0.00511810019960916
 20
0.0629921031216639
0
VERTEX
8
7
6
CONTINUOUS
 10
0.0145669007353782
 20
0.0629921031216639
0
VERTEX
8
7
6
CONTINUOUS
 10
0.0145669007353782
 20
0.0866141039842493
0
VERTEX
8
7
6
CONTINUOUS
 10
0.00511810019960914
 20
0.0866141039842493
0
SEQEND
999
##### Poly 117 ####
0
POLYLINE
5
36
70
1
8
3
6
CONTINUOUS
 62
3
66
1
10
0
20
0
0
VERTEX
8
3
6
CONTINUOUS
 10
0.00511810019960916
 20
0.0629921031216639
0
VERTEX
8
3
6
CONTINUOUS
 10
0.0145669007353782
 20
0.0629921031216639
0
VERTEX
8
3
6
CONTINUOUS
 10
0.0145669007353782
 20
0.0866141039842493
0
VERTEX
8
3
6
CONTINUOUS
 10
0.00511810019960914
 20
0.0866141039842493
0
SEQEND
999
##### Poly 118 ####
0
POLYLINE
5
36
70
1
8
6
6
CONTINUOUS
 62
6
66
1
10
0
20
0
0
VERTEX
8
6
6
CONTINUOUS
 10
-0.0145669007353782
 20
0.0629921031216639
0
VERTEX
8
6
6
CONTINUOUS
 10
-0.00511810019960914
 20
0.0629921031216639
0
VERTEX
8
6
6
CONTINUOUS
 10
-0.00511810019960915
 20
0.0866141039842493
0
VERTEX
8
6
6
CONTINUOUS
 10
-0.0145669007353782
 20
0.0866141039842493
0
SEQEND
999
##### Poly 119 ####
0
POLYLINE
5
36
70
1
8
7
6
CONTINUOUS
 62
7
66
1
10
0
20
0
0
VERTEX
8
7
6
CONTINUOUS
 10
-0.0145669007353782
 20
0.0629921031216639
0
VERTEX
8
7
6
CONTINUOUS
 10
-0.00511810019960914
 20
0.0629921031216639
0
VERTEX
8
7
6
CONTINUOUS
 10
-0.00511810019960915
 20
0.0866141039842493
0
VERTEX
8
7
6
CONTINUOUS
 10
-0.0145669007353782
 20
0.0866141039842493
0
SEQEND
999
##### Poly 120 ####
0
POLYLINE
5
36
70
1
8
3
6
CONTINUOUS
 62
3
66
1
10
0
20
0
0
VERTEX
8
3
6
CONTINUOUS
 10
-0.0145669007353782
 20
0.0629921031216639
0
VERTEX
8
3
6
CONTINUOUS
 10
-0.00511810019960914
 20
0.0629921031216639
0
VERTEX
8
3
6
CONTINUOUS
 10
-0.00511810019960915
 20
0.0866141039842493
0
VERTEX
8
3
6
CONTINUOUS
 10
-0.0145669007353782
 20
0.0866141039842493
0
SEQEND
999
##### Poly 121 ####
0
POLYLINE
5
36
70
1
8
6
6
CONTINUOUS
 62
6
66
1
10
0
20
0
0
VERTEX
8
6
6
CONTINUOUS
 10
-0.0342520016703702
 20
0.0629921031216639
0
VERTEX
8
6
6
CONTINUOUS
 10
-0.0248032011346012
 20
0.0629921031216639
0
VERTEX
8
6
6
CONTINUOUS
 10
-0.0248032011346012
 20
0.0866141039842493
0
VERTEX
8
6
6
CONTINUOUS
 10
-0.0342520016703703
 20
0.0866141039842493
0
SEQEND
999
##### Poly 122 ####
0
POLYLINE
5
36
70
1
8
7
6
CONTINUOUS
 62
7
66
1
10
0
20
0
0
VERTEX
8
7
6
CONTINUOUS
 10
-0.0342520016703702
 20
0.0629921031216639
0
VERTEX
8
7
6
CONTINUOUS
 10
-0.0248032011346012
 20
0.0629921031216639
0
VERTEX
8
7
6
CONTINUOUS
 10
-0.0248032011346012
 20
0.0866141039842493
0
VERTEX
8
7
6
CONTINUOUS
 10
-0.0342520016703703
 20
0.0866141039842493
0
SEQEND
999
##### Poly 123 ####
0
POLYLINE
5
36
70
1
8
3
6
CONTINUOUS
 62
3
66
1
10
0
20
0
0
VERTEX
8
3
6
CONTINUOUS
 10
-0.0342520016703702
 20
0.0629921031216639
0
VERTEX
8
3
6
CONTINUOUS
 10
-0.0248032011346012
 20
0.0629921031216639
0
VERTEX
8
3
6
CONTINUOUS
 10
-0.0248032011346012
 20
0.0866141039842493
0
VERTEX
8
3
6
CONTINUOUS
 10
-0.0342520016703703
 20
0.0866141039842493
0
SEQEND
999
##### Poly 124 ####
0
POLYLINE
5
36
70
1
8
6
6
CONTINUOUS
 62
6
66
1
10
0
20
0
0
VERTEX
8
6
6
CONTINUOUS
 10
-0.0539370026053576
 20
0.0629921031216639
0
VERTEX
8
6
6
CONTINUOUS
 10
-0.0444882020695886
 20
0.0629921031216639
0
VERTEX
8
6
6
CONTINUOUS
 10
-0.0444882020695886
 20
0.0866141039842493
0
VERTEX
8
6
6
CONTINUOUS
 10
-0.0539370026053576
 20
0.0866141039842493
0
SEQEND
999
##### Poly 125 ####
0
POLYLINE
5
36
70
1
8
7
6
CONTINUOUS
 62
7
66
1
10
0
20
0
0
VERTEX
8
7
6
CONTINUOUS
 10
-0.0539370026053576
 20
0.0629921031216639
0
VERTEX
8
7
6
CONTINUOUS
 10
-0.0444882020695886
 20
0.0629921031216639
0
VERTEX
8
7
6
CONTINUOUS
 10
-0.0444882020695886
 20
0.0866141039842493
0
VERTEX
8
7
6
CONTINUOUS
 10
-0.0539370026053576
 20
0.0866141039842493
0
SEQEND
999
##### Poly 126 ####
0
POLYLINE
5
36
70
1
8
3
6
CONTINUOUS
 62
3
66
1
10
0
20
0
0
VERTEX
8
3
6
CONTINUOUS
 10
-0.0539370026053576
 20
0.0629921031216639
0
VERTEX
8
3
6
CONTINUOUS
 10
-0.0444882020695886
 20
0.0629921031216639
0
VERTEX
8
3
6
CONTINUOUS
 10
-0.0444882020695886
 20
0.0866141039842493
0
VERTEX
8
3
6
CONTINUOUS
 10
-0.0539370026053576
 20
0.0866141039842493
0
SEQEND
999
##### Poly 127 ####
0
POLYLINE
5
36
70
1
8
6
6
CONTINUOUS
 62
6
66
1
10
0
20
0
0
VERTEX
8
6
6
CONTINUOUS
 10
-0.0531496035071366
 20
-0.0531496035071366
0
VERTEX
8
6
6
CONTINUOUS
 10
0.0531496035071366
 20
-0.0531496035071366
0
VERTEX
8
6
6
CONTINUOUS
 10
0.0531496035071366
 20
0.0531496035071366
0
VERTEX
8
6
6
CONTINUOUS
 10
-0.0531496035071366
 20
0.0531496035071366
0
SEQEND
999
##### Poly 128 ####
0
POLYLINE
5
36
70
1
8
7
6
CONTINUOUS
 62
7
66
1
10
0
20
0
0
VERTEX
8
7
6
CONTINUOUS
 10
-0.0531496035071366
 20
-0.0531496035071366
0
VERTEX
8
7
6
CONTINUOUS
 10
0.0531496035071366
 20
-0.0531496035071366
0
VERTEX
8
7
6
CONTINUOUS
 10
0.0531496035071366
 20
0.0531496035071366
0
VERTEX
8
7
6
CONTINUOUS
 10
-0.0531496035071366
 20
0.0531496035071366
0
SEQEND
999
##### Poly 129 ####
0
POLYLINE
5
36
70
1
8
3
6
CONTINUOUS
 62
3
66
1
10
0
20
0
0
VERTEX
8
3
6
CONTINUOUS
 10
-0.000500000023748725
 20
-0.000500000023748726
0
VERTEX
8
3
6
CONTINUOUS
 10
0.000500000023748726
 20
-0.000500000023748725
0
VERTEX
8
3
6
CONTINUOUS
 10
0.000500000023748726
 20
0.000500000023748726
0
VERTEX
8
3
6
CONTINUOUS
 10
-0.000500000023748726
 20
0.000500000023748725
0
SEQEND
 999
##### ROUND 130 ####
 0
CIRCLE
 62
6
 8
6
 10
0
 20
0.0433071020569769
 40
0.00984250020046484
 999
##### ROUND 131 ####
 0
CIRCLE
 62
7
 8
7
 10
0
 20
0.0433071020569769
 40
0.00984250020046484
 999
##### ROUND 132 ####
 0
CIRCLE
 62
13
 8
13
 10
0
 20
0.0433071020569769
 40
0.00984250020046484
 999
##### ROUND 133 ####
 0
CIRCLE
 62
14
 8
14
 10
0
 20
0.0433071020569769
 40
0.00984250020046484
 999
##### ARC 134 ####
 0
SOLID
 62
9
 5
36
 8
9
 10
0
 20
0.0433071020569769
 11
0.000457239127739374
 21
0.0452541338389578
 12
0
 22
0.0433071020569769
 13
-0.000457238998107892
 23
0.0452541338694003
 999
##### ARC 135 ####
 0
SOLID
 62
9
 5
36
 8
9
 10
0
 20
0.0433071020569769
 11
-0.00194703172109582
 21
0.0437643414439792
 12
0
 22
0.0433071020569769
 13
-0.00194703187330848
 23
0.042849863318132
 999
##### ARC 136 ####
 0
SOLID
 62
9
 5
36
 8
9
 10
0
 20
0.0433071020569769
 11
-0.000457239387002333
 21
0.0413600703358811
 12
0
 22
0.0433071020569769
 13
0.000457238738844922
 23
0.0413600701836684
 999
##### ARC 137 ####
 0
SOLID
 62
9
 5
36
 8
9
 10
0
 20
0.0433071020569769
 11
0.00194703172109582
 21
0.0428498626699745
 12
0
 22
0.0433071020569769
 13
0.00194703187330848
 23
0.0437643407958218
 999
##### ROUND 138 ####
 0
CIRCLE
 62
10
 8
10
 10
0
 20
0.0433071020569769
 40
0.00984250020046484
 999
##### ROUND 139 ####
 0
CIRCLE
 62
11
 8
11
 10
0
 20
0.0433071020569769
 40
0.0240000011399388
999
##### ARC 140 ####
0
ARC
5
36
8
32
6
CONTINUOUS
 62
32
 10
0
 20
0.0433071020569769
39
0
40
0
50
0
51
180
999
##### ARC 141 ####
0
ARC
5
36
8
32
6
CONTINUOUS
 62
32
 10
0
 20
0.0433071020569769
39
0
40
0
50
180
51
360
 999
##### ROUND 142 ####
 0
CIRCLE
 62
32
 8
32
 10
0
 20
0.0433071020569769
 40
0.00350000016624108
 999
##### ROUND 143 ####
 0
CIRCLE
 62
6
 8
6
 10
-0.0433071020569769
 20
0
 40
0.00984250020046484
 999
##### ROUND 144 ####
 0
CIRCLE
 62
7
 8
7
 10
-0.0433071020569769
 20
0
 40
0.00984250020046484
 999
##### ROUND 145 ####
 0
CIRCLE
 62
13
 8
13
 10
-0.0433071020569769
 20
0
 40
0.00984250020046484
 999
##### ROUND 146 ####
 0
CIRCLE
 62
14
 8
14
 10
-0.0433071020569769
 20
0
 40
0.00984250020046484
 999
##### ARC 147 ####
 0
SOLID
 62
9
 5
36
 8
9
 10
-0.0433071020569769
 20
0
 11
-0.0428498629292375
 21
0.00194703178198091
 12
-0.0433071020569769
 22
0
 13
-0.0437643410550848
 23
0.00194703181242344
 999
##### ARC 148 ####
 0
SOLID
 62
9
 5
36
 8
9
 10
-0.0433071020569769
 20
0
 11
-0.0452541337780727
 21
0.000457239387002334
 12
-0.0433071020569769
 22
0
 13
-0.0452541339302854
 23
-0.000457238738844921
 999
##### ARC 149 ####
 0
SOLID
 62
9
 5
36
 8
9
 10
-0.0433071020569769
 20
0
 11
-0.0437643414439792
 21
-0.00194703172109582
 12
-0.0433071020569769
 22
0
 13
-0.042849863318132
 23
-0.00194703187330848
 999
##### ARC 150 ####
 0
SOLID
 62
9
 5
36
 8
9
 10
-0.0433071020569769
 20
0
 11
-0.0413600703358811
 21
-0.000457239387002333
 12
-0.0433071020569769
 22
0
 13
-0.0413600701836684
 23
0.000457238738844922
 999
##### ROUND 151 ####
 0
CIRCLE
 62
10
 8
10
 10
-0.0433071020569769
 20
0
 40
0.00984250020046484
 999
##### ROUND 152 ####
 0
CIRCLE
 62
11
 8
11
 10
-0.0433071020569769
 20
-3.55271384754535E-18
 40
0.0240000011399388
999
##### ARC 153 ####
0
ARC
5
36
8
32
6
CONTINUOUS
 62
32
 10
-0.0433071020569769
 20
0
39
0
40
0
50
0
51
180
999
##### ARC 154 ####
0
ARC
5
36
8
32
6
CONTINUOUS
 62
32
 10
-0.0433071020569769
 20
0
39
0
40
0
50
180
51
360
 999
##### ROUND 155 ####
 0
CIRCLE
 62
32
 8
32
 10
-0.0433071020569769
 20
0
 40
0.00350000016624108
 999
##### ROUND 156 ####
 0
CIRCLE
 62
6
 8
6
 10
0
 20
0
 40
0.00984250020046484
 999
##### ROUND 157 ####
 0
CIRCLE
 62
7
 8
7
 10
0
 20
0
 40
0.00984250020046484
 999
##### ROUND 158 ####
 0
CIRCLE
 62
13
 8
13
 10
0
 20
0
 40
0.00984250020046484
 999
##### ROUND 159 ####
 0
CIRCLE
 62
14
 8
14
 10
0
 20
0
 40
0.00984250020046484
 999
##### ARC 160 ####
 0
SOLID
 62
9
 5
36
 8
9
 10
0
 20
0
 11
0.000457239127739374
 21
0.00194703178198091
 12
0
 22
0
 13
-0.000457238998107892
 23
0.00194703181242344
 999
##### ARC 161 ####
 0
SOLID
 62
9
 5
36
 8
9
 10
0
 20
0
 11
-0.00194703172109582
 21
0.000457239387002334
 12
0
 22
0
 13
-0.00194703187330848
 23
-0.000457238738844921
 999
##### ARC 162 ####
 0
SOLID
 62
9
 5
36
 8
9
 10
0
 20
0
 11
-0.000457239387002333
 21
-0.00194703172109582
 12
0
 22
0
 13
0.000457238738844922
 23
-0.00194703187330848
 999
##### ARC 163 ####
 0
SOLID
 62
9
 5
36
 8
9
 10
0
 20
0
 11
0.00194703172109582
 21
-0.000457239387002333
 12
0
 22
0
 13
0.00194703187330848
 23
0.000457238738844922
 999
##### ROUND 164 ####
 0
CIRCLE
 62
10
 8
10
 10
0
 20
0
 40
0.00984250020046484
 999
##### ROUND 165 ####
 0
CIRCLE
 62
11
 8
11
 10
0
 20
0
 40
0.0240000011399388
999
##### ARC 166 ####
0
ARC
5
36
8
32
6
CONTINUOUS
 62
32
 10
0
 20
0
39
0
40
0
50
0
51
180
999
##### ARC 167 ####
0
ARC
5
36
8
32
6
CONTINUOUS
 62
32
 10
0
 20
0
39
0
40
0
50
180
51
360
 999
##### ROUND 168 ####
 0
CIRCLE
 62
32
 8
32
 10
0
 20
0
 40
0.00350000016624108
 999
##### ROUND 169 ####
 0
CIRCLE
 62
6
 8
6
 10
0.0433071020569769
 20
0
 40
0.00984250020046484
 999
##### ROUND 170 ####
 0
CIRCLE
 62
7
 8
7
 10
0.0433071020569769
 20
0
 40
0.00984250020046484
 999
##### ROUND 171 ####
 0
CIRCLE
 62
13
 8
13
 10
0.0433071020569769
 20
0
 40
0.00984250020046484
 999
##### ROUND 172 ####
 0
CIRCLE
 62
14
 8
14
 10
0.0433071020569769
 20
0
 40
0.00984250020046484
 999
##### ARC 173 ####
 0
SOLID
 62
9
 5
36
 8
9
 10
0.0433071020569769
 20
0
 11
0.0437643411847162
 21
0.00194703178198091
 12
0.0433071020569769
 22
0
 13
0.042849863058869
 23
0.00194703181242344
 999
##### ARC 174 ####
 0
SOLID
 62
9
 5
36
 8
9
 10
0.0433071020569769
 20
0
 11
0.0413600703358811
 21
0.000457239387002334
 12
0.0433071020569769
 22
0
 13
0.0413600701836684
 23
-0.000457238738844921
 999
##### ARC 175 ####
 0
SOLID
 62
9
 5
36
 8
9
 10
0.0433071020569769
 20
0
 11
0.0428498626699745
 21
-0.00194703172109582
 12
0.0433071020569769
 22
0
 13
0.0437643407958218
 23
-0.00194703187330848
 999
##### ARC 176 ####
 0
SOLID
 62
9
 5
36
 8
9
 10
0.0433071020569769
 20
0
 11
0.0452541337780727
 21
-0.000457239387002333
 12
0.0433071020569769
 22
0
 13
0.0452541339302854
 23
0.000457238738844922
 999
##### ROUND 177 ####
 0
CIRCLE
 62
10
 8
10
 10
0.0433071020569769
 20
0
 40
0.00984250020046484
 999
##### ROUND 178 ####
 0
CIRCLE
 62
11
 8
11
 10
0.0433071020569769
 20
-3.55271384754535E-18
 40
0.0240000011399388
999
##### ARC 179 ####
0
ARC
5
36
8
32
6
CONTINUOUS
 62
32
 10
0.0433071020569769
 20
0
39
0
40
0
50
0
51
180
999
##### ARC 180 ####
0
ARC
5
36
8
32
6
CONTINUOUS
 62
32
 10
0.0433071020569769
 20
0
39
0
40
0
50
180
51
360
 999
##### ROUND 181 ####
 0
CIRCLE
 62
32
 8
32
 10
0.0433071020569769
 20
0
 40
0.00350000016624108
 999
##### ROUND 182 ####
 0
CIRCLE
 62
6
 8
6
 10
0
 20
-0.0433071020569769
 40
0.00984250020046484
 999
##### ROUND 183 ####
 0
CIRCLE
 62
7
 8
7
 10
0
 20
-0.0433071020569769
 40
0.00984250020046484
 999
##### ROUND 184 ####
 0
CIRCLE
 62
13
 8
13
 10
0
 20
-0.0433071020569769
 40
0.00984250020046484
 999
##### ROUND 185 ####
 0
CIRCLE
 62
14
 8
14
 10
0
 20
-0.0433071020569769
 40
0.00984250020046484
 999
##### ARC 186 ####
 0
SOLID
 62
9
 5
36
 8
9
 10
0
 20
-0.0433071020569769
 11
0.000457239127739374
 21
-0.041360070274996
 12
0
 22
-0.0433071020569769
 13
-0.000457238998107892
 23
-0.0413600702445534
 999
##### ARC 187 ####
 0
SOLID
 62
9
 5
36
 8
9
 10
0
 20
-0.0433071020569769
 11
-0.00194703172109582
 21
-0.0428498626699745
 12
0
 22
-0.0433071020569769
 13
-0.00194703187330848
 23
-0.0437643407958218
 999
##### ARC 188 ####
 0
SOLID
 62
9
 5
36
 8
9
 10
0
 20
-0.0433071020569769
 11
-0.000457239387002333
 21
-0.0452541337780727
 12
0
 22
-0.0433071020569769
 13
0.000457238738844922
 23
-0.0452541339302854
 999
##### ARC 189 ####
 0
SOLID
 62
9
 5
36
 8
9
 10
0
 20
-0.0433071020569769
 11
0.00194703172109582
 21
-0.0437643414439792
 12
0
 22
-0.0433071020569769
 13
0.00194703187330848
 23
-0.042849863318132
 999
##### ROUND 190 ####
 0
CIRCLE
 62
10
 8
10
 10
0
 20
-0.0433071020569769
 40
0.00984250020046484
 999
##### ROUND 191 ####
 0
CIRCLE
 62
11
 8
11
 10
0
 20
-0.0433071020569769
 40
0.0240000011399388
999
##### ARC 192 ####
0
ARC
5
36
8
32
6
CONTINUOUS
 62
32
 10
0
 20
-0.0433071020569769
39
0
40
0
50
0
51
180
999
##### ARC 193 ####
0
ARC
5
36
8
32
6
CONTINUOUS
 62
32
 10
0
 20
-0.0433071020569769
39
0
40
0
50
180
51
360
 999
##### ROUND 194 ####
 0
CIRCLE
 62
32
 8
32
 10
0
 20
-0.0433071020569769
 40
0.00350000016624108
 0
ENDBLK
 0
ENDSEC
 0
SECTION
 2
ENTITIES
 0
INSERT
 8
0
 2
RTW0024H
 10
0
 20
0
 30
0
 41
1
 42
1
 43
1
 0
ENDSEC
 0
EOF

