ISO-10303-21;
HEADER;
FILE_DESCRIPTION(('STEP AP214'),'1');
FILE_NAME('RES_VISHAY_WSLP1206_VIS','2022-11-16T05:07:30',(''),(''),'','','');
FILE_SCHEMA(('AUTOMOTIVE_DESIGN'));
ENDSEC;
DATA;
#1=SHAPE_DEFINITION_REPRESENTATION(#2,#3);
#2=PRODUCT_DEFINITION_SHAPE('',$,#4);
#3=SHAPE_REPRESENTATION('',(#71,#368,#941,#19),#11);
#4=PRODUCT_DEFINITION('design','example product_definition',#6,#5);
#5=PRODUCT_DEFINITION_CONTEXT('3D Mechanical Parts',#10,'design');
#6=PRODUCT_DEFINITION_FORMATION('1.0','first version',#8);
#7=APPLICATION_PROTOCOL_DEFINITION('international standard','automotive_design',2003,#10);
#8=PRODUCT('product','part','',(#9));
#9=PRODUCT_CONTEXT('3D Mechanical Parts',#10,'mechanical');
#10=APPLICATION_CONTEXT('Core Data for Automotive Mechanical Design Process');
#11=(GEOMETRIC_REPRESENTATION_CONTEXT(3) GLOBAL_UNCERTAINTY_ASSIGNED_CONTEXT((#12)) GLOBAL_UNIT_ASSIGNED_CONTEXT((#13,#14,#18)) REPRESENTATION_CONTEXT('ID1','3D'));
#12=UNCERTAINTY_MEASURE_WITH_UNIT(LENGTH_MEASURE(1.E-005),#13,'DISTANCE_ACCURACY_VALUE','Maximum model space distance between geometric entities at asserted connectivities');
#13=(LENGTH_UNIT() NAMED_UNIT(*) SI_UNIT(.MILLI.,.METRE.));
#14=(CONVERSION_BASED_UNIT('degree',#16) NAMED_UNIT(#15) PLANE_ANGLE_UNIT());
#15=DIMENSIONAL_EXPONENTS(0.,0.,0.,0.,0.,0.,0.);
#16=MEASURE_WITH_UNIT(PLANE_ANGLE_MEASURE(0.01745329252),#17);
#17=(NAMED_UNIT(*) PLANE_ANGLE_UNIT() SI_UNIT($,.RADIAN.));
#18=(NAMED_UNIT(*) SI_UNIT($,.STERADIAN.) SOLID_ANGLE_UNIT());
#19=AXIS2_PLACEMENT_3D('',#20,#21,#22);
#20=CARTESIAN_POINT('',(0.0,0.0,0.0));
#21=DIRECTION('',(0.0,0.0,1.0));
#22=DIRECTION('',(1.0,0.0,0.0));
#25=MECHANICAL_DESIGN_GEOMETRIC_PRESENTATION_REPRESENTATION($,(#73,#122,#171,#220,#269,#318,#370,#419,#468,#517,#566,#615,#664,#713,#762,#851,#943,#992,#1041,#1090,#1139,#1188,#1237,#1286,#1335,#1424),#11);
#26=PRODUCT_CATEGORY_RELATIONSHIP('','',#27,#28);
#27=PRODUCT_CATEGORY('part','');
#28=PRODUCT_RELATED_PRODUCT_CATEGORY('','',(#8));
#34=PRESENTATION_STYLE_ASSIGNMENT((#35,#40));
#35=SURFACE_STYLE_USAGE(.BOTH.,#36);
#36=SURFACE_SIDE_STYLE('',(#37));
#37=SURFACE_STYLE_FILL_AREA(#38);
#38=FILL_AREA_STYLE('',(#39));
#39=FILL_AREA_STYLE_COLOUR('',#41);
#40=CURVE_STYLE('',#42,POSITIVE_LENGTH_MEASURE(0.1),#41);
#41=COLOUR_RGB('Aluminum',0.725,0.725,0.725);
#42=DRAUGHTING_PRE_DEFINED_CURVE_FONT('continuous');
#43=PRESENTATION_STYLE_ASSIGNMENT((#44,#49));
#44=SURFACE_STYLE_USAGE(.BOTH.,#45);
#45=SURFACE_SIDE_STYLE('',(#46));
#46=SURFACE_STYLE_FILL_AREA(#47);
#47=FILL_AREA_STYLE('',(#48));
#48=FILL_AREA_STYLE_COLOUR('',#50);
#49=CURVE_STYLE('',#51,POSITIVE_LENGTH_MEASURE(0.1),#50);
#50=COLOUR_RGB('Black',0.196,0.196,0.196);
#51=DRAUGHTING_PRE_DEFINED_CURVE_FONT('continuous');
#52=PRESENTATION_STYLE_ASSIGNMENT((#53,#58));
#53=SURFACE_STYLE_USAGE(.BOTH.,#54);
#54=SURFACE_SIDE_STYLE('',(#55));
#55=SURFACE_STYLE_FILL_AREA(#56);
#56=FILL_AREA_STYLE('',(#57));
#57=FILL_AREA_STYLE_COLOUR('',#59);
#58=CURVE_STYLE('',#60,POSITIVE_LENGTH_MEASURE(0.1),#59);
#59=COLOUR_RGB('Pin1Wrap',0.98,0.706,0.176);
#60=DRAUGHTING_PRE_DEFINED_CURVE_FONT('continuous');
#61=PRESENTATION_STYLE_ASSIGNMENT((#62,#67));
#62=SURFACE_STYLE_USAGE(.BOTH.,#63);
#63=SURFACE_SIDE_STYLE('',(#64));
#64=SURFACE_STYLE_FILL_AREA(#65);
#65=FILL_AREA_STYLE('',(#66));
#66=FILL_AREA_STYLE_COLOUR('',#68);
#67=CURVE_STYLE('',#69,POSITIVE_LENGTH_MEASURE(0.1),#68);
#68=COLOUR_RGB('HeatTab',0.588,0.588,0.588);
#69=DRAUGHTING_PRE_DEFINED_CURVE_FONT('continuous');
#71=MANIFOLD_SOLID_BREP($,#72);
#72=CLOSED_SHELL('',(#74,#123,#172,#221,#270,#319));
#73=STYLED_ITEM('',(#43),#74);
#74=ADVANCED_FACE('',(#80),#75,.T.);
#75=PLANE('',#76);
#76=AXIS2_PLACEMENT_3D('',#77,#78,#79);
#77=CARTESIAN_POINT('',(-1.702,-0.927,0.025));
#78=DIRECTION('',(0.0,-1.0,0.0));
#79=DIRECTION('',(0.,0.,1.));
#80=FACE_OUTER_BOUND('',#81,.T.);
#81=EDGE_LOOP('',(#82,#92,#102,#112));
#85=CARTESIAN_POINT('',(1.702,-0.927,0.025));
#84=VERTEX_POINT('',#85);
#87=CARTESIAN_POINT('',(-1.702,-0.927,0.025));
#86=VERTEX_POINT('',#87);
#83=EDGE_CURVE('',#84,#86,#88,.T.);
#88=LINE('',#85,#90);
#90=VECTOR('',#91,3.4036);
#91=DIRECTION('',(-1.0,0.0,0.0));
#82=ORIENTED_EDGE('',*,*,#83,.F.);
#95=CARTESIAN_POINT('',(1.702,-0.927,0.864));
#94=VERTEX_POINT('',#95);
#93=EDGE_CURVE('',#94,#84,#98,.T.);
#98=LINE('',#95,#100);
#100=VECTOR('',#101,0.8382);
#101=DIRECTION('',(0.0,0.0,-1.0));
#92=ORIENTED_EDGE('',*,*,#93,.F.);
#105=CARTESIAN_POINT('',(-1.702,-0.927,0.864));
#104=VERTEX_POINT('',#105);
#103=EDGE_CURVE('',#104,#94,#108,.T.);
#108=LINE('',#105,#110);
#110=VECTOR('',#111,3.4036);
#111=DIRECTION('',(1.0,0.0,0.0));
#102=ORIENTED_EDGE('',*,*,#103,.F.);
#113=EDGE_CURVE('',#86,#104,#118,.T.);
#118=LINE('',#87,#120);
#120=VECTOR('',#121,0.8382);
#121=DIRECTION('',(0.0,0.0,1.0));
#112=ORIENTED_EDGE('',*,*,#113,.F.);
#122=STYLED_ITEM('',(#43),#123);
#123=ADVANCED_FACE('',(#129),#124,.T.);
#124=PLANE('',#125);
#125=AXIS2_PLACEMENT_3D('',#126,#127,#128);
#126=CARTESIAN_POINT('',(1.702,-0.927,0.025));
#127=DIRECTION('',(1.0,0.0,0.0));
#128=DIRECTION('',(0.,0.,1.));
#129=FACE_OUTER_BOUND('',#130,.T.);
#130=EDGE_LOOP('',(#131,#141,#151,#161));
#134=CARTESIAN_POINT('',(1.702,0.927,0.025));
#133=VERTEX_POINT('',#134);
#132=EDGE_CURVE('',#133,#84,#137,.T.);
#137=LINE('',#134,#139);
#139=VECTOR('',#140,1.8542);
#140=DIRECTION('',(0.0,-1.0,0.0));
#131=ORIENTED_EDGE('',*,*,#132,.F.);
#144=CARTESIAN_POINT('',(1.702,0.927,0.864));
#143=VERTEX_POINT('',#144);
#142=EDGE_CURVE('',#143,#133,#147,.T.);
#147=LINE('',#144,#149);
#149=VECTOR('',#150,0.8382);
#150=DIRECTION('',(0.0,0.0,-1.0));
#141=ORIENTED_EDGE('',*,*,#142,.F.);
#152=EDGE_CURVE('',#94,#143,#157,.T.);
#157=LINE('',#95,#159);
#159=VECTOR('',#160,1.8542);
#160=DIRECTION('',(0.0,1.0,0.0));
#151=ORIENTED_EDGE('',*,*,#152,.F.);
#161=ORIENTED_EDGE('',*,*,#93,.T.);
#171=STYLED_ITEM('',(#43),#172);
#172=ADVANCED_FACE('',(#178),#173,.T.);
#173=PLANE('',#174);
#174=AXIS2_PLACEMENT_3D('',#175,#176,#177);
#175=CARTESIAN_POINT('',(1.702,0.927,0.025));
#176=DIRECTION('',(0.0,1.0,0.0));
#177=DIRECTION('',(0.,0.,1.));
#178=FACE_OUTER_BOUND('',#179,.T.);
#179=EDGE_LOOP('',(#180,#190,#200,#210));
#183=CARTESIAN_POINT('',(-1.702,0.927,0.025));
#182=VERTEX_POINT('',#183);
#181=EDGE_CURVE('',#182,#133,#186,.T.);
#186=LINE('',#183,#188);
#188=VECTOR('',#189,3.4036);
#189=DIRECTION('',(1.0,0.0,0.0));
#180=ORIENTED_EDGE('',*,*,#181,.F.);
#193=CARTESIAN_POINT('',(-1.702,0.927,0.864));
#192=VERTEX_POINT('',#193);
#191=EDGE_CURVE('',#192,#182,#196,.T.);
#196=LINE('',#193,#198);
#198=VECTOR('',#199,0.8382);
#199=DIRECTION('',(0.0,0.0,-1.0));
#190=ORIENTED_EDGE('',*,*,#191,.F.);
#201=EDGE_CURVE('',#143,#192,#206,.T.);
#206=LINE('',#144,#208);
#208=VECTOR('',#209,3.4036);
#209=DIRECTION('',(-1.0,0.0,0.0));
#200=ORIENTED_EDGE('',*,*,#201,.F.);
#210=ORIENTED_EDGE('',*,*,#142,.T.);
#220=STYLED_ITEM('',(#43),#221);
#221=ADVANCED_FACE('',(#227),#222,.T.);
#222=PLANE('',#223);
#223=AXIS2_PLACEMENT_3D('',#224,#225,#226);
#224=CARTESIAN_POINT('',(-1.702,0.927,0.025));
#225=DIRECTION('',(-1.0,0.0,0.0));
#226=DIRECTION('',(0.,0.,1.));
#227=FACE_OUTER_BOUND('',#228,.T.);
#228=EDGE_LOOP('',(#229,#239,#249,#259));
#230=EDGE_CURVE('',#86,#182,#235,.T.);
#235=LINE('',#87,#237);
#237=VECTOR('',#238,1.8542);
#238=DIRECTION('',(0.0,1.0,0.0));
#229=ORIENTED_EDGE('',*,*,#230,.F.);
#239=ORIENTED_EDGE('',*,*,#113,.T.);
#250=EDGE_CURVE('',#192,#104,#255,.T.);
#255=LINE('',#193,#257);
#257=VECTOR('',#258,1.8542);
#258=DIRECTION('',(0.0,-1.0,0.0));
#249=ORIENTED_EDGE('',*,*,#250,.F.);
#259=ORIENTED_EDGE('',*,*,#191,.T.);
#269=STYLED_ITEM('',(#43),#270);
#270=ADVANCED_FACE('',(#276),#271,.T.);
#271=PLANE('',#272);
#272=AXIS2_PLACEMENT_3D('',#273,#274,#275);
#273=CARTESIAN_POINT('',(-1.702,0.927,0.025));
#274=DIRECTION('',(0.0,0.0,-1.0));
#275=DIRECTION('',(0.,1.,0.));
#276=FACE_OUTER_BOUND('',#277,.T.);
#277=EDGE_LOOP('',(#278,#288,#298,#308));
#278=ORIENTED_EDGE('',*,*,#181,.T.);
#288=ORIENTED_EDGE('',*,*,#132,.T.);
#298=ORIENTED_EDGE('',*,*,#83,.T.);
#308=ORIENTED_EDGE('',*,*,#230,.T.);
#318=STYLED_ITEM('',(#43),#319);
#319=ADVANCED_FACE('',(#325),#320,.T.);
#320=PLANE('',#321);
#321=AXIS2_PLACEMENT_3D('',#322,#323,#324);
#322=CARTESIAN_POINT('',(-1.702,-0.927,0.864));
#323=DIRECTION('',(0.0,0.0,1.0));
#324=DIRECTION('',(0.,1.,0.));
#325=FACE_OUTER_BOUND('',#326,.T.);
#326=EDGE_LOOP('',(#327,#337,#347,#357));
#327=ORIENTED_EDGE('',*,*,#103,.T.);
#337=ORIENTED_EDGE('',*,*,#152,.T.);
#347=ORIENTED_EDGE('',*,*,#201,.T.);
#357=ORIENTED_EDGE('',*,*,#250,.T.);
#368=MANIFOLD_SOLID_BREP($,#369);
#369=CLOSED_SHELL('',(#371,#420,#469,#518,#567,#616,#665,#714,#763,#852));
#370=STYLED_ITEM('',(#34),#371);
#371=ADVANCED_FACE('',(#377),#372,.T.);
#372=PLANE('',#373);
#373=AXIS2_PLACEMENT_3D('',#374,#375,#376);
#374=CARTESIAN_POINT('',(1.727,0.889,0.889));
#375=DIRECTION('',(0.0,0.0,1.0));
#376=DIRECTION('',(0.,1.,0.));
#377=FACE_OUTER_BOUND('',#378,.T.);
#378=EDGE_LOOP('',(#379,#389,#399,#409));
#382=CARTESIAN_POINT('',(0.381,0.889,0.889));
#381=VERTEX_POINT('',#382);
#384=CARTESIAN_POINT('',(1.727,0.889,0.889));
#383=VERTEX_POINT('',#384);
#380=EDGE_CURVE('',#381,#383,#385,.T.);
#385=LINE('',#382,#387);
#387=VECTOR('',#388,1.3462);
#388=DIRECTION('',(1.0,0.0,0.0));
#379=ORIENTED_EDGE('',*,*,#380,.F.);
#392=CARTESIAN_POINT('',(0.381,-0.889,0.889));
#391=VERTEX_POINT('',#392);
#390=EDGE_CURVE('',#391,#381,#395,.T.);
#395=LINE('',#392,#397);
#397=VECTOR('',#398,1.778);
#398=DIRECTION('',(0.0,1.0,0.0));
#389=ORIENTED_EDGE('',*,*,#390,.F.);
#402=CARTESIAN_POINT('',(1.727,-0.889,0.889));
#401=VERTEX_POINT('',#402);
#400=EDGE_CURVE('',#401,#391,#405,.T.);
#405=LINE('',#402,#407);
#407=VECTOR('',#408,1.3462);
#408=DIRECTION('',(-1.0,0.0,0.0));
#399=ORIENTED_EDGE('',*,*,#400,.F.);
#410=EDGE_CURVE('',#383,#401,#415,.T.);
#415=LINE('',#384,#417);
#417=VECTOR('',#418,1.778);
#418=DIRECTION('',(0.0,-1.0,0.0));
#409=ORIENTED_EDGE('',*,*,#410,.F.);
#419=STYLED_ITEM('',(#34),#420);
#420=ADVANCED_FACE('',(#426),#421,.T.);
#421=PLANE('',#422);
#422=AXIS2_PLACEMENT_3D('',#423,#424,#425);
#423=CARTESIAN_POINT('',(1.702,0.889,0.025));
#424=DIRECTION('',(0.0,0.0,1.0));
#425=DIRECTION('',(0.,1.,0.));
#426=FACE_OUTER_BOUND('',#427,.T.);
#427=EDGE_LOOP('',(#428,#438,#448,#458));
#431=CARTESIAN_POINT('',(0.381,0.889,0.025));
#430=VERTEX_POINT('',#431);
#433=CARTESIAN_POINT('',(1.702,0.889,0.025));
#432=VERTEX_POINT('',#433);
#429=EDGE_CURVE('',#430,#432,#434,.T.);
#434=LINE('',#431,#436);
#436=VECTOR('',#437,1.3208);
#437=DIRECTION('',(1.0,0.0,0.0));
#428=ORIENTED_EDGE('',*,*,#429,.F.);
#441=CARTESIAN_POINT('',(0.381,-0.889,0.025));
#440=VERTEX_POINT('',#441);
#439=EDGE_CURVE('',#440,#430,#444,.T.);
#444=LINE('',#441,#446);
#446=VECTOR('',#447,1.778);
#447=DIRECTION('',(0.0,1.0,0.0));
#438=ORIENTED_EDGE('',*,*,#439,.F.);
#451=CARTESIAN_POINT('',(1.702,-0.889,0.025));
#450=VERTEX_POINT('',#451);
#449=EDGE_CURVE('',#450,#440,#454,.T.);
#454=LINE('',#451,#456);
#456=VECTOR('',#457,1.3208);
#457=DIRECTION('',(-1.0,0.0,0.0));
#448=ORIENTED_EDGE('',*,*,#449,.F.);
#459=EDGE_CURVE('',#432,#450,#464,.T.);
#464=LINE('',#433,#466);
#466=VECTOR('',#467,1.778);
#467=DIRECTION('',(0.0,-1.0,0.0));
#458=ORIENTED_EDGE('',*,*,#459,.F.);
#468=STYLED_ITEM('',(#34),#469);
#469=ADVANCED_FACE('',(#475),#470,.T.);
#470=PLANE('',#471);
#471=AXIS2_PLACEMENT_3D('',#472,#473,#474);
#472=CARTESIAN_POINT('',(1.727,-0.889,0.0));
#473=DIRECTION('',(1.0,0.0,0.0));
#474=DIRECTION('',(0.,0.,1.));
#475=FACE_OUTER_BOUND('',#476,.T.);
#476=EDGE_LOOP('',(#477,#487,#497,#507));
#480=CARTESIAN_POINT('',(1.727,0.889,0.0));
#479=VERTEX_POINT('',#480);
#482=CARTESIAN_POINT('',(1.727,-0.889,0.0));
#481=VERTEX_POINT('',#482);
#478=EDGE_CURVE('',#479,#481,#483,.T.);
#483=LINE('',#480,#485);
#485=VECTOR('',#486,1.778);
#486=DIRECTION('',(0.0,-1.0,0.0));
#477=ORIENTED_EDGE('',*,*,#478,.F.);
#488=EDGE_CURVE('',#383,#479,#493,.T.);
#493=LINE('',#384,#495);
#495=VECTOR('',#496,0.889);
#496=DIRECTION('',(0.0,0.0,-1.0));
#487=ORIENTED_EDGE('',*,*,#488,.F.);
#497=ORIENTED_EDGE('',*,*,#410,.T.);
#508=EDGE_CURVE('',#481,#401,#513,.T.);
#513=LINE('',#482,#515);
#515=VECTOR('',#516,0.889);
#516=DIRECTION('',(0.0,0.0,1.0));
#507=ORIENTED_EDGE('',*,*,#508,.F.);
#517=STYLED_ITEM('',(#34),#518);
#518=ADVANCED_FACE('',(#524),#519,.T.);
#519=PLANE('',#520);
#520=AXIS2_PLACEMENT_3D('',#521,#522,#523);
#521=CARTESIAN_POINT('',(0.381,0.889,0.864));
#522=DIRECTION('',(-1.0,0.0,0.0));
#523=DIRECTION('',(0.,0.,1.));
#524=FACE_OUTER_BOUND('',#525,.T.);
#525=EDGE_LOOP('',(#526,#536,#546,#556));
#529=CARTESIAN_POINT('',(0.381,-0.889,0.864));
#528=VERTEX_POINT('',#529);
#531=CARTESIAN_POINT('',(0.381,0.889,0.864));
#530=VERTEX_POINT('',#531);
#527=EDGE_CURVE('',#528,#530,#532,.T.);
#532=LINE('',#529,#534);
#534=VECTOR('',#535,1.778);
#535=DIRECTION('',(0.0,1.0,0.0));
#526=ORIENTED_EDGE('',*,*,#527,.F.);
#537=EDGE_CURVE('',#391,#528,#542,.T.);
#542=LINE('',#392,#544);
#544=VECTOR('',#545,0.0254);
#545=DIRECTION('',(0.0,0.0,-1.0));
#536=ORIENTED_EDGE('',*,*,#537,.F.);
#546=ORIENTED_EDGE('',*,*,#390,.T.);
#557=EDGE_CURVE('',#530,#381,#562,.T.);
#562=LINE('',#531,#564);
#564=VECTOR('',#565,0.0254);
#565=DIRECTION('',(0.0,0.0,1.0));
#556=ORIENTED_EDGE('',*,*,#557,.F.);
#566=STYLED_ITEM('',(#34),#567);
#567=ADVANCED_FACE('',(#573),#568,.T.);
#568=PLANE('',#569);
#569=AXIS2_PLACEMENT_3D('',#570,#571,#572);
#570=CARTESIAN_POINT('',(0.381,0.889,0.0));
#571=DIRECTION('',(-1.0,0.0,0.0));
#572=DIRECTION('',(0.,0.,1.));
#573=FACE_OUTER_BOUND('',#574,.T.);
#574=EDGE_LOOP('',(#575,#585,#595,#605));
#578=CARTESIAN_POINT('',(0.381,-0.889,0.0));
#577=VERTEX_POINT('',#578);
#580=CARTESIAN_POINT('',(0.381,0.889,0.0));
#579=VERTEX_POINT('',#580);
#576=EDGE_CURVE('',#577,#579,#581,.T.);
#581=LINE('',#578,#583);
#583=VECTOR('',#584,1.778);
#584=DIRECTION('',(0.0,1.0,0.0));
#575=ORIENTED_EDGE('',*,*,#576,.F.);
#586=EDGE_CURVE('',#440,#577,#591,.T.);
#591=LINE('',#441,#593);
#593=VECTOR('',#594,0.0254);
#594=DIRECTION('',(0.0,0.0,-1.0));
#585=ORIENTED_EDGE('',*,*,#586,.F.);
#595=ORIENTED_EDGE('',*,*,#439,.T.);
#606=EDGE_CURVE('',#579,#430,#611,.T.);
#611=LINE('',#580,#613);
#613=VECTOR('',#614,0.0254);
#614=DIRECTION('',(0.0,0.0,1.0));
#605=ORIENTED_EDGE('',*,*,#606,.F.);
#615=STYLED_ITEM('',(#34),#616);
#616=ADVANCED_FACE('',(#622),#617,.T.);
#617=PLANE('',#618);
#618=AXIS2_PLACEMENT_3D('',#619,#620,#621);
#619=CARTESIAN_POINT('',(1.702,0.889,0.025));
#620=DIRECTION('',(-1.0,0.0,0.0));
#621=DIRECTION('',(0.,0.,1.));
#622=FACE_OUTER_BOUND('',#623,.T.);
#623=EDGE_LOOP('',(#624,#634,#644,#654));
#624=ORIENTED_EDGE('',*,*,#459,.T.);
#637=CARTESIAN_POINT('',(1.702,-0.889,0.864));
#636=VERTEX_POINT('',#637);
#635=EDGE_CURVE('',#636,#450,#640,.T.);
#640=LINE('',#637,#642);
#642=VECTOR('',#643,0.8382);
#643=DIRECTION('',(0.0,0.0,-1.0));
#634=ORIENTED_EDGE('',*,*,#635,.F.);
#647=CARTESIAN_POINT('',(1.702,0.889,0.864));
#646=VERTEX_POINT('',#647);
#645=EDGE_CURVE('',#646,#636,#650,.T.);
#650=LINE('',#647,#652);
#652=VECTOR('',#653,1.778);
#653=DIRECTION('',(0.0,-1.0,0.0));
#644=ORIENTED_EDGE('',*,*,#645,.F.);
#655=EDGE_CURVE('',#432,#646,#660,.T.);
#660=LINE('',#433,#662);
#662=VECTOR('',#663,0.8382);
#663=DIRECTION('',(0.0,0.0,1.0));
#654=ORIENTED_EDGE('',*,*,#655,.F.);
#664=STYLED_ITEM('',(#34),#665);
#665=ADVANCED_FACE('',(#671),#666,.T.);
#666=PLANE('',#667);
#667=AXIS2_PLACEMENT_3D('',#668,#669,#670);
#668=CARTESIAN_POINT('',(1.702,-0.889,0.864));
#669=DIRECTION('',(0.0,0.0,-1.0));
#670=DIRECTION('',(0.,1.,0.));
#671=FACE_OUTER_BOUND('',#672,.T.);
#672=EDGE_LOOP('',(#673,#683,#693,#703));
#674=EDGE_CURVE('',#528,#636,#679,.T.);
#679=LINE('',#529,#681);
#681=VECTOR('',#682,1.3208);
#682=DIRECTION('',(1.0,0.0,0.0));
#673=ORIENTED_EDGE('',*,*,#674,.F.);
#683=ORIENTED_EDGE('',*,*,#527,.T.);
#694=EDGE_CURVE('',#646,#530,#699,.T.);
#699=LINE('',#647,#701);
#701=VECTOR('',#702,1.3208);
#702=DIRECTION('',(-1.0,0.0,0.0));
#693=ORIENTED_EDGE('',*,*,#694,.F.);
#703=ORIENTED_EDGE('',*,*,#645,.T.);
#713=STYLED_ITEM('',(#34),#714);
#714=ADVANCED_FACE('',(#720),#715,.T.);
#715=PLANE('',#716);
#716=AXIS2_PLACEMENT_3D('',#717,#718,#719);
#717=CARTESIAN_POINT('',(1.727,-0.889,0.0));
#718=DIRECTION('',(0.0,0.0,-1.0));
#719=DIRECTION('',(0.,1.,0.));
#720=FACE_OUTER_BOUND('',#721,.T.);
#721=EDGE_LOOP('',(#722,#732,#742,#752));
#723=EDGE_CURVE('',#577,#481,#728,.T.);
#728=LINE('',#578,#730);
#730=VECTOR('',#731,1.3462);
#731=DIRECTION('',(1.0,0.0,0.0));
#722=ORIENTED_EDGE('',*,*,#723,.F.);
#732=ORIENTED_EDGE('',*,*,#576,.T.);
#743=EDGE_CURVE('',#479,#579,#748,.T.);
#748=LINE('',#480,#750);
#750=VECTOR('',#751,1.3462);
#751=DIRECTION('',(-1.0,0.0,0.0));
#742=ORIENTED_EDGE('',*,*,#743,.F.);
#752=ORIENTED_EDGE('',*,*,#478,.T.);
#762=STYLED_ITEM('',(#34),#763);
#763=ADVANCED_FACE('',(#769),#764,.T.);
#764=PLANE('',#765);
#765=AXIS2_PLACEMENT_3D('',#766,#767,#768);
#766=CARTESIAN_POINT('',(1.727,0.889,0.0));
#767=DIRECTION('',(0.0,1.0,0.0));
#768=DIRECTION('',(0.,0.,1.));
#769=FACE_OUTER_BOUND('',#770,.T.);
#770=EDGE_LOOP('',(#771,#781,#791,#801,#811,#821,#831,#841));
#771=ORIENTED_EDGE('',*,*,#743,.T.);
#781=ORIENTED_EDGE('',*,*,#606,.T.);
#791=ORIENTED_EDGE('',*,*,#429,.T.);
#801=ORIENTED_EDGE('',*,*,#655,.T.);
#811=ORIENTED_EDGE('',*,*,#694,.T.);
#821=ORIENTED_EDGE('',*,*,#557,.T.);
#831=ORIENTED_EDGE('',*,*,#380,.T.);
#841=ORIENTED_EDGE('',*,*,#488,.T.);
#851=STYLED_ITEM('',(#34),#852);
#852=ADVANCED_FACE('',(#858),#853,.T.);
#853=PLANE('',#854);
#854=AXIS2_PLACEMENT_3D('',#855,#856,#857);
#855=CARTESIAN_POINT('',(0.381,-0.889,0.0));
#856=DIRECTION('',(0.0,-1.0,0.0));
#857=DIRECTION('',(0.,0.,1.));
#858=FACE_OUTER_BOUND('',#859,.T.);
#859=EDGE_LOOP('',(#860,#870,#880,#890,#900,#910,#920,#930));
#860=ORIENTED_EDGE('',*,*,#723,.T.);
#870=ORIENTED_EDGE('',*,*,#508,.T.);
#880=ORIENTED_EDGE('',*,*,#400,.T.);
#890=ORIENTED_EDGE('',*,*,#537,.T.);
#900=ORIENTED_EDGE('',*,*,#674,.T.);
#910=ORIENTED_EDGE('',*,*,#635,.T.);
#920=ORIENTED_EDGE('',*,*,#449,.T.);
#930=ORIENTED_EDGE('',*,*,#586,.T.);
#941=MANIFOLD_SOLID_BREP($,#942);
#942=CLOSED_SHELL('',(#944,#993,#1042,#1091,#1140,#1189,#1238,#1287,#1336,#1425));
#943=STYLED_ITEM('',(#34),#944);
#944=ADVANCED_FACE('',(#950),#945,.T.);
#945=PLANE('',#946);
#946=AXIS2_PLACEMENT_3D('',#947,#948,#949);
#947=CARTESIAN_POINT('',(-1.727,-0.889,0.889));
#948=DIRECTION('',(0.0,0.0,1.0));
#949=DIRECTION('',(0.,1.,0.));
#950=FACE_OUTER_BOUND('',#951,.T.);
#951=EDGE_LOOP('',(#952,#962,#972,#982));
#955=CARTESIAN_POINT('',(-0.381,-0.889,0.889));
#954=VERTEX_POINT('',#955);
#957=CARTESIAN_POINT('',(-1.727,-0.889,0.889));
#956=VERTEX_POINT('',#957);
#953=EDGE_CURVE('',#954,#956,#958,.T.);
#958=LINE('',#955,#960);
#960=VECTOR('',#961,1.3462);
#961=DIRECTION('',(-1.0,0.0,0.0));
#952=ORIENTED_EDGE('',*,*,#953,.F.);
#965=CARTESIAN_POINT('',(-0.381,0.889,0.889));
#964=VERTEX_POINT('',#965);
#963=EDGE_CURVE('',#964,#954,#968,.T.);
#968=LINE('',#965,#970);
#970=VECTOR('',#971,1.778);
#971=DIRECTION('',(0.0,-1.0,0.0));
#962=ORIENTED_EDGE('',*,*,#963,.F.);
#975=CARTESIAN_POINT('',(-1.727,0.889,0.889));
#974=VERTEX_POINT('',#975);
#973=EDGE_CURVE('',#974,#964,#978,.T.);
#978=LINE('',#975,#980);
#980=VECTOR('',#981,1.3462);
#981=DIRECTION('',(1.0,0.0,0.0));
#972=ORIENTED_EDGE('',*,*,#973,.F.);
#983=EDGE_CURVE('',#956,#974,#988,.T.);
#988=LINE('',#957,#990);
#990=VECTOR('',#991,1.778);
#991=DIRECTION('',(0.0,1.0,0.0));
#982=ORIENTED_EDGE('',*,*,#983,.F.);
#992=STYLED_ITEM('',(#34),#993);
#993=ADVANCED_FACE('',(#999),#994,.T.);
#994=PLANE('',#995);
#995=AXIS2_PLACEMENT_3D('',#996,#997,#998);
#996=CARTESIAN_POINT('',(-1.702,-0.889,0.025));
#997=DIRECTION('',(0.0,0.0,1.0));
#998=DIRECTION('',(0.,1.,0.));
#999=FACE_OUTER_BOUND('',#1000,.T.);
#1000=EDGE_LOOP('',(#1001,#1011,#1021,#1031));
#1004=CARTESIAN_POINT('',(-0.381,-0.889,0.025));
#1003=VERTEX_POINT('',#1004);
#1006=CARTESIAN_POINT('',(-1.702,-0.889,0.025));
#1005=VERTEX_POINT('',#1006);
#1002=EDGE_CURVE('',#1003,#1005,#1007,.T.);
#1007=LINE('',#1004,#1009);
#1009=VECTOR('',#1010,1.3208);
#1010=DIRECTION('',(-1.0,0.0,0.0));
#1001=ORIENTED_EDGE('',*,*,#1002,.F.);
#1014=CARTESIAN_POINT('',(-0.381,0.889,0.025));
#1013=VERTEX_POINT('',#1014);
#1012=EDGE_CURVE('',#1013,#1003,#1017,.T.);
#1017=LINE('',#1014,#1019);
#1019=VECTOR('',#1020,1.778);
#1020=DIRECTION('',(0.0,-1.0,0.0));
#1011=ORIENTED_EDGE('',*,*,#1012,.F.);
#1024=CARTESIAN_POINT('',(-1.702,0.889,0.025));
#1023=VERTEX_POINT('',#1024);
#1022=EDGE_CURVE('',#1023,#1013,#1027,.T.);
#1027=LINE('',#1024,#1029);
#1029=VECTOR('',#1030,1.3208);
#1030=DIRECTION('',(1.0,0.0,0.0));
#1021=ORIENTED_EDGE('',*,*,#1022,.F.);
#1032=EDGE_CURVE('',#1005,#1023,#1037,.T.);
#1037=LINE('',#1006,#1039);
#1039=VECTOR('',#1040,1.778);
#1040=DIRECTION('',(0.0,1.0,0.0));
#1031=ORIENTED_EDGE('',*,*,#1032,.F.);
#1041=STYLED_ITEM('',(#34),#1042);
#1042=ADVANCED_FACE('',(#1048),#1043,.T.);
#1043=PLANE('',#1044);
#1044=AXIS2_PLACEMENT_3D('',#1045,#1046,#1047);
#1045=CARTESIAN_POINT('',(-1.727,0.889,0.0));
#1046=DIRECTION('',(-1.0,0.0,0.0));
#1047=DIRECTION('',(0.,0.,1.));
#1048=FACE_OUTER_BOUND('',#1049,.T.);
#1049=EDGE_LOOP('',(#1050,#1060,#1070,#1080));
#1053=CARTESIAN_POINT('',(-1.727,-0.889,0.0));
#1052=VERTEX_POINT('',#1053);
#1055=CARTESIAN_POINT('',(-1.727,0.889,0.0));
#1054=VERTEX_POINT('',#1055);
#1051=EDGE_CURVE('',#1052,#1054,#1056,.T.);
#1056=LINE('',#1053,#1058);
#1058=VECTOR('',#1059,1.778);
#1059=DIRECTION('',(0.0,1.0,0.0));
#1050=ORIENTED_EDGE('',*,*,#1051,.F.);
#1061=EDGE_CURVE('',#956,#1052,#1066,.T.);
#1066=LINE('',#957,#1068);
#1068=VECTOR('',#1069,0.889);
#1069=DIRECTION('',(0.0,0.0,-1.0));
#1060=ORIENTED_EDGE('',*,*,#1061,.F.);
#1070=ORIENTED_EDGE('',*,*,#983,.T.);
#1081=EDGE_CURVE('',#1054,#974,#1086,.T.);
#1086=LINE('',#1055,#1088);
#1088=VECTOR('',#1089,0.889);
#1089=DIRECTION('',(0.0,0.0,1.0));
#1080=ORIENTED_EDGE('',*,*,#1081,.F.);
#1090=STYLED_ITEM('',(#34),#1091);
#1091=ADVANCED_FACE('',(#1097),#1092,.T.);
#1092=PLANE('',#1093);
#1093=AXIS2_PLACEMENT_3D('',#1094,#1095,#1096);
#1094=CARTESIAN_POINT('',(-0.381,-0.889,0.864));
#1095=DIRECTION('',(1.0,0.0,0.0));
#1096=DIRECTION('',(0.,0.,1.));
#1097=FACE_OUTER_BOUND('',#1098,.T.);
#1098=EDGE_LOOP('',(#1099,#1109,#1119,#1129));
#1102=CARTESIAN_POINT('',(-0.381,0.889,0.864));
#1101=VERTEX_POINT('',#1102);
#1104=CARTESIAN_POINT('',(-0.381,-0.889,0.864));
#1103=VERTEX_POINT('',#1104);
#1100=EDGE_CURVE('',#1101,#1103,#1105,.T.);
#1105=LINE('',#1102,#1107);
#1107=VECTOR('',#1108,1.778);
#1108=DIRECTION('',(0.0,-1.0,0.0));
#1099=ORIENTED_EDGE('',*,*,#1100,.F.);
#1110=EDGE_CURVE('',#964,#1101,#1115,.T.);
#1115=LINE('',#965,#1117);
#1117=VECTOR('',#1118,0.0254);
#1118=DIRECTION('',(0.0,0.0,-1.0));
#1109=ORIENTED_EDGE('',*,*,#1110,.F.);
#1119=ORIENTED_EDGE('',*,*,#963,.T.);
#1130=EDGE_CURVE('',#1103,#954,#1135,.T.);
#1135=LINE('',#1104,#1137);
#1137=VECTOR('',#1138,0.0254);
#1138=DIRECTION('',(0.0,0.0,1.0));
#1129=ORIENTED_EDGE('',*,*,#1130,.F.);
#1139=STYLED_ITEM('',(#34),#1140);
#1140=ADVANCED_FACE('',(#1146),#1141,.T.);
#1141=PLANE('',#1142);
#1142=AXIS2_PLACEMENT_3D('',#1143,#1144,#1145);
#1143=CARTESIAN_POINT('',(-0.381,-0.889,0.0));
#1144=DIRECTION('',(1.0,0.0,0.0));
#1145=DIRECTION('',(0.,0.,1.));
#1146=FACE_OUTER_BOUND('',#1147,.T.);
#1147=EDGE_LOOP('',(#1148,#1158,#1168,#1178));
#1151=CARTESIAN_POINT('',(-0.381,0.889,0.0));
#1150=VERTEX_POINT('',#1151);
#1153=CARTESIAN_POINT('',(-0.381,-0.889,0.0));
#1152=VERTEX_POINT('',#1153);
#1149=EDGE_CURVE('',#1150,#1152,#1154,.T.);
#1154=LINE('',#1151,#1156);
#1156=VECTOR('',#1157,1.778);
#1157=DIRECTION('',(0.0,-1.0,0.0));
#1148=ORIENTED_EDGE('',*,*,#1149,.F.);
#1159=EDGE_CURVE('',#1013,#1150,#1164,.T.);
#1164=LINE('',#1014,#1166);
#1166=VECTOR('',#1167,0.0254);
#1167=DIRECTION('',(0.0,0.0,-1.0));
#1158=ORIENTED_EDGE('',*,*,#1159,.F.);
#1168=ORIENTED_EDGE('',*,*,#1012,.T.);
#1179=EDGE_CURVE('',#1152,#1003,#1184,.T.);
#1184=LINE('',#1153,#1186);
#1186=VECTOR('',#1187,0.0254);
#1187=DIRECTION('',(0.0,0.0,1.0));
#1178=ORIENTED_EDGE('',*,*,#1179,.F.);
#1188=STYLED_ITEM('',(#34),#1189);
#1189=ADVANCED_FACE('',(#1195),#1190,.T.);
#1190=PLANE('',#1191);
#1191=AXIS2_PLACEMENT_3D('',#1192,#1193,#1194);
#1192=CARTESIAN_POINT('',(-1.702,-0.889,0.025));
#1193=DIRECTION('',(1.0,0.0,0.0));
#1194=DIRECTION('',(0.,0.,1.));
#1195=FACE_OUTER_BOUND('',#1196,.T.);
#1196=EDGE_LOOP('',(#1197,#1207,#1217,#1227));
#1197=ORIENTED_EDGE('',*,*,#1032,.T.);
#1210=CARTESIAN_POINT('',(-1.702,0.889,0.864));
#1209=VERTEX_POINT('',#1210);
#1208=EDGE_CURVE('',#1209,#1023,#1213,.T.);
#1213=LINE('',#1210,#1215);
#1215=VECTOR('',#1216,0.8382);
#1216=DIRECTION('',(0.0,0.0,-1.0));
#1207=ORIENTED_EDGE('',*,*,#1208,.F.);
#1220=CARTESIAN_POINT('',(-1.702,-0.889,0.864));
#1219=VERTEX_POINT('',#1220);
#1218=EDGE_CURVE('',#1219,#1209,#1223,.T.);
#1223=LINE('',#1220,#1225);
#1225=VECTOR('',#1226,1.778);
#1226=DIRECTION('',(0.0,1.0,0.0));
#1217=ORIENTED_EDGE('',*,*,#1218,.F.);
#1228=EDGE_CURVE('',#1005,#1219,#1233,.T.);
#1233=LINE('',#1006,#1235);
#1235=VECTOR('',#1236,0.8382);
#1236=DIRECTION('',(0.0,0.0,1.0));
#1227=ORIENTED_EDGE('',*,*,#1228,.F.);
#1237=STYLED_ITEM('',(#34),#1238);
#1238=ADVANCED_FACE('',(#1244),#1239,.T.);
#1239=PLANE('',#1240);
#1240=AXIS2_PLACEMENT_3D('',#1241,#1242,#1243);
#1241=CARTESIAN_POINT('',(-1.702,0.889,0.864));
#1242=DIRECTION('',(0.0,0.0,-1.0));
#1243=DIRECTION('',(0.,1.,0.));
#1244=FACE_OUTER_BOUND('',#1245,.T.);
#1245=EDGE_LOOP('',(#1246,#1256,#1266,#1276));
#1247=EDGE_CURVE('',#1101,#1209,#1252,.T.);
#1252=LINE('',#1102,#1254);
#1254=VECTOR('',#1255,1.3208);
#1255=DIRECTION('',(-1.0,0.0,0.0));
#1246=ORIENTED_EDGE('',*,*,#1247,.F.);
#1256=ORIENTED_EDGE('',*,*,#1100,.T.);
#1267=EDGE_CURVE('',#1219,#1103,#1272,.T.);
#1272=LINE('',#1220,#1274);
#1274=VECTOR('',#1275,1.3208);
#1275=DIRECTION('',(1.0,0.0,0.0));
#1266=ORIENTED_EDGE('',*,*,#1267,.F.);
#1276=ORIENTED_EDGE('',*,*,#1218,.T.);
#1286=STYLED_ITEM('',(#34),#1287);
#1287=ADVANCED_FACE('',(#1293),#1288,.T.);
#1288=PLANE('',#1289);
#1289=AXIS2_PLACEMENT_3D('',#1290,#1291,#1292);
#1290=CARTESIAN_POINT('',(-1.727,0.889,0.0));
#1291=DIRECTION('',(0.0,0.0,-1.0));
#1292=DIRECTION('',(0.,1.,0.));
#1293=FACE_OUTER_BOUND('',#1294,.T.);
#1294=EDGE_LOOP('',(#1295,#1305,#1315,#1325));
#1296=EDGE_CURVE('',#1150,#1054,#1301,.T.);
#1301=LINE('',#1151,#1303);
#1303=VECTOR('',#1304,1.3462);
#1304=DIRECTION('',(-1.0,0.0,0.0));
#1295=ORIENTED_EDGE('',*,*,#1296,.F.);
#1305=ORIENTED_EDGE('',*,*,#1149,.T.);
#1316=EDGE_CURVE('',#1052,#1152,#1321,.T.);
#1321=LINE('',#1053,#1323);
#1323=VECTOR('',#1324,1.3462);
#1324=DIRECTION('',(1.0,0.0,0.0));
#1315=ORIENTED_EDGE('',*,*,#1316,.F.);
#1325=ORIENTED_EDGE('',*,*,#1051,.T.);
#1335=STYLED_ITEM('',(#34),#1336);
#1336=ADVANCED_FACE('',(#1342),#1337,.T.);
#1337=PLANE('',#1338);
#1338=AXIS2_PLACEMENT_3D('',#1339,#1340,#1341);
#1339=CARTESIAN_POINT('',(-1.727,-0.889,0.0));
#1340=DIRECTION('',(0.0,-1.0,0.0));
#1341=DIRECTION('',(0.,0.,1.));
#1342=FACE_OUTER_BOUND('',#1343,.T.);
#1343=EDGE_LOOP('',(#1344,#1354,#1364,#1374,#1384,#1394,#1404,#1414));
#1344=ORIENTED_EDGE('',*,*,#1316,.T.);
#1354=ORIENTED_EDGE('',*,*,#1179,.T.);
#1364=ORIENTED_EDGE('',*,*,#1002,.T.);
#1374=ORIENTED_EDGE('',*,*,#1228,.T.);
#1384=ORIENTED_EDGE('',*,*,#1267,.T.);
#1394=ORIENTED_EDGE('',*,*,#1130,.T.);
#1404=ORIENTED_EDGE('',*,*,#953,.T.);
#1414=ORIENTED_EDGE('',*,*,#1061,.T.);
#1424=STYLED_ITEM('',(#34),#1425);
#1425=ADVANCED_FACE('',(#1431),#1426,.T.);
#1426=PLANE('',#1427);
#1427=AXIS2_PLACEMENT_3D('',#1428,#1429,#1430);
#1428=CARTESIAN_POINT('',(-0.381,0.889,0.0));
#1429=DIRECTION('',(0.0,1.0,0.0));
#1430=DIRECTION('',(0.,0.,1.));
#1431=FACE_OUTER_BOUND('',#1432,.T.);
#1432=EDGE_LOOP('',(#1433,#1443,#1453,#1463,#1473,#1483,#1493,#1503));
#1433=ORIENTED_EDGE('',*,*,#1296,.T.);
#1443=ORIENTED_EDGE('',*,*,#1081,.T.);
#1453=ORIENTED_EDGE('',*,*,#973,.T.);
#1463=ORIENTED_EDGE('',*,*,#1110,.T.);
#1473=ORIENTED_EDGE('',*,*,#1247,.T.);
#1483=ORIENTED_EDGE('',*,*,#1208,.T.);
#1493=ORIENTED_EDGE('',*,*,#1022,.T.);
#1503=ORIENTED_EDGE('',*,*,#1159,.T.);
ENDSEC;
END-ISO-10303-21;
