ISO-10303-21;
HEADER;
FILE_DESCRIPTION(('STEP AP214'),'1');
FILE_NAME('R6_STM','2023-08-01T10:09:07',(''),(''),'','','');
FILE_SCHEMA(('AUTOMOTIVE_DESIGN'));
ENDSEC;
DATA;
#1=SHAPE_DEFINITION_REPRESENTATION(#2,#3);
#2=PRODUCT_DEFINITION_SHAPE('',$,#4);
#3=SHAPE_REPRESENTATION('',(#188,#244,#467,#849,#19),#11);
#4=PRODUCT_DEFINITION('design','example product_definition',#6,#5);
#5=PRODUCT_DEFINITION_CONTEXT('3D Mechanical Parts',#10,'design');
#6=PRODUCT_DEFINITION_FORMATION('1.0','first version',#8);
#7=APPLICATION_PROTOCOL_DEFINITION('international standard','automotive_design',2003,#10);
#8=PRODUCT('product','part','',(#9));
#9=PRODUCT_CONTEXT('3D Mechanical Parts',#10,'mechanical');
#10=APPLICATION_CONTEXT('Core Data for Automotive Mechanical Design Process');
#11=(GEOMETRIC_REPRESENTATION_CONTEXT(3) GLOBAL_UNCERTAINTY_ASSIGNED_CONTEXT((#12)) GLOBAL_UNIT_ASSIGNED_CONTEXT((#13,#14,#18)) REPRESENTATION_CONTEXT('ID1','3D'));
#12=UNCERTAINTY_MEASURE_WITH_UNIT(LENGTH_MEASURE(1.E-005),#13,'DISTANCE_ACCURACY_VALUE','Maximum model space distance between geometric entities at asserted connectivities');
#13=(LENGTH_UNIT() NAMED_UNIT(*) SI_UNIT(.MILLI.,.METRE.));
#14=(CONVERSION_BASED_UNIT('degree',#16) NAMED_UNIT(#15) PLANE_ANGLE_UNIT());
#15=DIMENSIONAL_EXPONENTS(0.,0.,0.,0.,0.,0.,0.);
#16=MEASURE_WITH_UNIT(PLANE_ANGLE_MEASURE(0.01745329252),#17);
#17=(NAMED_UNIT(*) PLANE_ANGLE_UNIT() SI_UNIT($,.RADIAN.));
#18=(NAMED_UNIT(*) SI_UNIT($,.STERADIAN.) SOLID_ANGLE_UNIT());
#19=AXIS2_PLACEMENT_3D('',#20,#21,#22);
#20=CARTESIAN_POINT('',(0.0,0.0,0.0));
#21=DIRECTION('',(0.0,0.0,1.0));
#22=DIRECTION('',(1.0,0.0,0.0));
#25=MECHANICAL_DESIGN_GEOMETRIC_PRESENTATION_REPRESENTATION($,(#240,#241,#242,#246,#301,#356,#411,#469,#500,#553,#606,#659,#712,#765,#818,#851,#882,#935,#988,#1041,#1094,#1147,#1200),#11);
#26=PRODUCT_CATEGORY_RELATIONSHIP('','',#27,#28);
#27=PRODUCT_CATEGORY('part','');
#28=PRODUCT_RELATED_PRODUCT_CATEGORY('','',(#8));
#34=PRESENTATION_STYLE_ASSIGNMENT((#35,#40));
#35=SURFACE_STYLE_USAGE(.BOTH.,#36);
#36=SURFACE_SIDE_STYLE('',(#37));
#37=SURFACE_STYLE_FILL_AREA(#38);
#38=FILL_AREA_STYLE('',(#39));
#39=FILL_AREA_STYLE_COLOUR('',#41);
#40=CURVE_STYLE('',#42,POSITIVE_LENGTH_MEASURE(0.1),#41);
#41=COLOUR_RGB('Aluminum',0.725,0.725,0.725);
#42=DRAUGHTING_PRE_DEFINED_CURVE_FONT('continuous');
#43=PRESENTATION_STYLE_ASSIGNMENT((#44,#49));
#44=SURFACE_STYLE_USAGE(.BOTH.,#45);
#45=SURFACE_SIDE_STYLE('',(#46));
#46=SURFACE_STYLE_FILL_AREA(#47);
#47=FILL_AREA_STYLE('',(#48));
#48=FILL_AREA_STYLE_COLOUR('',#50);
#49=CURVE_STYLE('',#51,POSITIVE_LENGTH_MEASURE(0.1),#50);
#50=COLOUR_RGB('Tan',0.784,0.686,0.51);
#51=DRAUGHTING_PRE_DEFINED_CURVE_FONT('continuous');
#52=PRESENTATION_STYLE_ASSIGNMENT((#53,#58));
#53=SURFACE_STYLE_USAGE(.BOTH.,#54);
#54=SURFACE_SIDE_STYLE('',(#55));
#55=SURFACE_STYLE_FILL_AREA(#56);
#56=FILL_AREA_STYLE('',(#57));
#57=FILL_AREA_STYLE_COLOUR('',#59);
#58=CURVE_STYLE('',#60,POSITIVE_LENGTH_MEASURE(0.1),#59);
#59=COLOUR_RGB('Pin1Axial',0.98,0.706,0.176);
#60=DRAUGHTING_PRE_DEFINED_CURVE_FONT('continuous');
#61=PRESENTATION_STYLE_ASSIGNMENT((#62,#67));
#62=SURFACE_STYLE_USAGE(.BOTH.,#63);
#63=SURFACE_SIDE_STYLE('',(#64));
#64=SURFACE_STYLE_FILL_AREA(#65);
#65=FILL_AREA_STYLE('',(#66));
#66=FILL_AREA_STYLE_COLOUR('',#68);
#67=CURVE_STYLE('',#69,POSITIVE_LENGTH_MEASURE(0.1),#68);
#68=COLOUR_RGB('HeatTab',0.588,0.588,0.588);
#69=DRAUGHTING_PRE_DEFINED_CURVE_FONT('continuous');
#70=PRESENTATION_STYLE_ASSIGNMENT((#71,#76));
#71=SURFACE_STYLE_USAGE(.BOTH.,#72);
#72=SURFACE_SIDE_STYLE('',(#73));
#73=SURFACE_STYLE_FILL_AREA(#74);
#74=FILL_AREA_STYLE('',(#75));
#75=FILL_AREA_STYLE_COLOUR('',#77);
#76=CURVE_STYLE('',#78,POSITIVE_LENGTH_MEASURE(0.1),#77);
#77=COLOUR_RGB('Black',0.196,0.196,0.196);
#78=DRAUGHTING_PRE_DEFINED_CURVE_FONT('continuous');
#79=PRESENTATION_STYLE_ASSIGNMENT((#80,#85));
#80=SURFACE_STYLE_USAGE(.BOTH.,#81);
#81=SURFACE_SIDE_STYLE('',(#82));
#82=SURFACE_STYLE_FILL_AREA(#83);
#83=FILL_AREA_STYLE('',(#84));
#84=FILL_AREA_STYLE_COLOUR('',#86);
#85=CURVE_STYLE('',#87,POSITIVE_LENGTH_MEASURE(0.1),#86);
#86=COLOUR_RGB('Gold',0.843,0.686,0.0);
#87=DRAUGHTING_PRE_DEFINED_CURVE_FONT('continuous');
#88=PRESENTATION_STYLE_ASSIGNMENT((#89,#94));
#89=SURFACE_STYLE_USAGE(.BOTH.,#90);
#90=SURFACE_SIDE_STYLE('',(#91));
#91=SURFACE_STYLE_FILL_AREA(#92);
#92=FILL_AREA_STYLE('',(#93));
#93=FILL_AREA_STYLE_COLOUR('',#95);
#94=CURVE_STYLE('',#96,POSITIVE_LENGTH_MEASURE(0.1),#95);
#95=COLOUR_RGB('Brown',0.459,0.345,0.176);
#96=DRAUGHTING_PRE_DEFINED_CURVE_FONT('continuous');
#97=PRESENTATION_STYLE_ASSIGNMENT((#98,#103));
#98=SURFACE_STYLE_USAGE(.BOTH.,#99);
#99=SURFACE_SIDE_STYLE('',(#100));
#100=SURFACE_STYLE_FILL_AREA(#101);
#101=FILL_AREA_STYLE('',(#102));
#102=FILL_AREA_STYLE_COLOUR('',#104);
#103=CURVE_STYLE('',#105,POSITIVE_LENGTH_MEASURE(0.1),#104);
#104=COLOUR_RGB('Gray',0.431,0.431,0.431);
#105=DRAUGHTING_PRE_DEFINED_CURVE_FONT('continuous');
#106=PRESENTATION_STYLE_ASSIGNMENT((#107,#112));
#107=SURFACE_STYLE_USAGE(.BOTH.,#108);
#108=SURFACE_SIDE_STYLE('',(#109));
#109=SURFACE_STYLE_FILL_AREA(#110);
#110=FILL_AREA_STYLE('',(#111));
#111=FILL_AREA_STYLE_COLOUR('',#113);
#112=CURVE_STYLE('',#114,POSITIVE_LENGTH_MEASURE(0.1),#113);
#113=COLOUR_RGB('Red',0.6,0.0,0.0);
#114=DRAUGHTING_PRE_DEFINED_CURVE_FONT('continuous');
#115=PRESENTATION_STYLE_ASSIGNMENT((#116,#121));
#116=SURFACE_STYLE_USAGE(.BOTH.,#117);
#117=SURFACE_SIDE_STYLE('',(#118));
#118=SURFACE_STYLE_FILL_AREA(#119);
#119=FILL_AREA_STYLE('',(#120));
#120=FILL_AREA_STYLE_COLOUR('',#122);
#121=CURVE_STYLE('',#123,POSITIVE_LENGTH_MEASURE(0.1),#122);
#122=COLOUR_RGB('Blue',0.157,0.157,0.588);
#123=DRAUGHTING_PRE_DEFINED_CURVE_FONT('continuous');
#124=PRESENTATION_STYLE_ASSIGNMENT((#125,#130));
#125=SURFACE_STYLE_USAGE(.BOTH.,#126);
#126=SURFACE_SIDE_STYLE('',(#127));
#127=SURFACE_STYLE_FILL_AREA(#128);
#128=FILL_AREA_STYLE('',(#129));
#129=FILL_AREA_STYLE_COLOUR('',#131);
#130=CURVE_STYLE('',#132,POSITIVE_LENGTH_MEASURE(0.1),#131);
#131=COLOUR_RGB('Maroon',0.294,0.0,0.0);
#132=DRAUGHTING_PRE_DEFINED_CURVE_FONT('continuous');
#133=PRESENTATION_STYLE_ASSIGNMENT((#134,#139));
#134=SURFACE_STYLE_USAGE(.BOTH.,#135);
#135=SURFACE_SIDE_STYLE('',(#136));
#136=SURFACE_STYLE_FILL_AREA(#137);
#137=FILL_AREA_STYLE('',(#138));
#138=FILL_AREA_STYLE_COLOUR('',#140);
#139=CURVE_STYLE('',#141,POSITIVE_LENGTH_MEASURE(0.1),#140);
#140=COLOUR_RGB('Green',0.0,0.294,0.0);
#141=DRAUGHTING_PRE_DEFINED_CURVE_FONT('continuous');
#142=PRESENTATION_STYLE_ASSIGNMENT((#143,#148));
#143=SURFACE_STYLE_USAGE(.BOTH.,#144);
#144=SURFACE_SIDE_STYLE('',(#145));
#145=SURFACE_STYLE_FILL_AREA(#146);
#146=FILL_AREA_STYLE('',(#147));
#147=FILL_AREA_STYLE_COLOUR('',#149);
#148=CURVE_STYLE('',#150,POSITIVE_LENGTH_MEASURE(0.1),#149);
#149=COLOUR_RGB('Pin1',0.588,0.588,0.059);
#150=DRAUGHTING_PRE_DEFINED_CURVE_FONT('continuous');
#151=PRESENTATION_STYLE_ASSIGNMENT((#152,#157));
#152=SURFACE_STYLE_USAGE(.BOTH.,#153);
#153=SURFACE_SIDE_STYLE('',(#154));
#154=SURFACE_STYLE_FILL_AREA(#155);
#155=FILL_AREA_STYLE('',(#156));
#156=FILL_AREA_STYLE_COLOUR('',#158);
#157=CURVE_STYLE('',#159,POSITIVE_LENGTH_MEASURE(0.1),#158);
#158=COLOUR_RGB('Pin1Wrap',0.98,0.706,0.176);
#159=DRAUGHTING_PRE_DEFINED_CURVE_FONT('continuous');
#160=PRESENTATION_STYLE_ASSIGNMENT((#161,#166));
#161=SURFACE_STYLE_USAGE(.BOTH.,#162);
#162=SURFACE_SIDE_STYLE('',(#163));
#163=SURFACE_STYLE_FILL_AREA(#164);
#164=FILL_AREA_STYLE('',(#165));
#165=FILL_AREA_STYLE_COLOUR('',#167);
#166=CURVE_STYLE('',#168,POSITIVE_LENGTH_MEASURE(0.1),#167);
#167=COLOUR_RGB('Pin1Rad',0.588,0.588,0.588);
#168=DRAUGHTING_PRE_DEFINED_CURVE_FONT('continuous');
#169=PRESENTATION_STYLE_ASSIGNMENT((#170,#175));
#170=SURFACE_STYLE_USAGE(.BOTH.,#171);
#171=SURFACE_SIDE_STYLE('',(#172));
#172=SURFACE_STYLE_FILL_AREA(#173);
#173=FILL_AREA_STYLE('',(#174));
#174=FILL_AREA_STYLE_COLOUR('',#176);
#175=CURVE_STYLE('',#177,POSITIVE_LENGTH_MEASURE(0.1),#176);
#176=COLOUR_RGB('Pin1Tant',0.459,0.345,0.176);
#177=DRAUGHTING_PRE_DEFINED_CURVE_FONT('continuous');
#178=PRESENTATION_STYLE_ASSIGNMENT((#179,#184));
#179=SURFACE_STYLE_USAGE(.BOTH.,#180);
#180=SURFACE_SIDE_STYLE('',(#181));
#181=SURFACE_STYLE_FILL_AREA(#182);
#182=FILL_AREA_STYLE('',(#183));
#183=FILL_AREA_STYLE_COLOUR('',#185);
#184=CURVE_STYLE('',#186,POSITIVE_LENGTH_MEASURE(0.1),#185);
#185=COLOUR_RGB('Shroud',0.235,0.235,0.235);
#186=DRAUGHTING_PRE_DEFINED_CURVE_FONT('continuous');
#188=MANIFOLD_SOLID_BREP($,#189);
#189=CLOSED_SHELL('',(#190,#191,#192));
#190=ADVANCED_FACE($,(#196,#195),#213,.T.);
#191=ADVANCED_FACE($,(#197),#193,.F.);
#192=ADVANCED_FACE($,(#198),#194,.T.);
#193=PLANE($,#218);
#194=PLANE($,#219);
#195=FACE_BOUND($,#200,.T.);
#196=FACE_OUTER_BOUND($,#199,.T.);
#197=FACE_OUTER_BOUND($,#201,.T.);
#198=FACE_OUTER_BOUND($,#202,.T.);
#199=EDGE_LOOP($,(#209));
#200=EDGE_LOOP($,(#210));
#201=EDGE_LOOP($,(#211));
#202=EDGE_LOOP($,(#212));
#203=CIRCLE($,#216,4.5466);
#204=CIRCLE($,#217,4.5466);
#205=VERTEX_POINT('',#234);
#206=VERTEX_POINT('',#236);
#207=EDGE_CURVE($,#205,#205,#203,.T.);
#208=EDGE_CURVE($,#206,#206,#204,.T.);
#209=ORIENTED_EDGE($,*,*,#207,.F.);
#210=ORIENTED_EDGE($,*,*,#208,.F.);
#211=ORIENTED_EDGE($,*,*,#208,.T.);
#212=ORIENTED_EDGE($,*,*,#207,.T.);
#213=CYLINDRICAL_SURFACE($,#215,4.5466);
#214=AXIS2_PLACEMENT_3D('placement',#232,#220,#221);
#215=AXIS2_PLACEMENT_3D($,#233,#222,#223);
#216=AXIS2_PLACEMENT_3D($,#235,#224,#225);
#217=AXIS2_PLACEMENT_3D($,#237,#226,#227);
#218=AXIS2_PLACEMENT_3D($,#238,#228,#229);
#219=AXIS2_PLACEMENT_3D($,#239,#230,#231);
#220=DIRECTION('axis',(0.,1.,0.));
#221=DIRECTION('refdir',(0.,0.,1.));
#222=DIRECTION('',(-1.,0.,0.));
#223=DIRECTION('',(0.,0.,1.));
#224=DIRECTION('',(-1.,0.,0.));
#225=DIRECTION('',(0.,0.,1.));
#226=DIRECTION('',(1.,0.,0.));
#227=DIRECTION('',(0.,0.,1.));
#228=DIRECTION('',(-1.,0.,0.));
#229=DIRECTION('',(0.,1.,0.));
#230=DIRECTION('',(-1.,0.,0.));
#231=DIRECTION('',(0.,1.,0.));
#232=CARTESIAN_POINT('',(0.,0.,0.));
#233=CARTESIAN_POINT('',(15.291,0.0,4.547));
#234=CARTESIAN_POINT('',(6.198,0.0,0.0));
#235=CARTESIAN_POINT('',(6.198,0.0,4.547));
#236=CARTESIAN_POINT('',(15.291,0.0,0.0));
#237=CARTESIAN_POINT('',(15.291,0.0,4.547));
#238=CARTESIAN_POINT('',(15.291,0.0,4.547));
#239=CARTESIAN_POINT('',(6.198,0.0,4.547));
#240=STYLED_ITEM('color',(#43),#190);
#241=STYLED_ITEM('color',(#43),#191);
#242=STYLED_ITEM('color',(#43),#192);
#244=MANIFOLD_SOLID_BREP($,#245);
#245=CLOSED_SHELL('',(#247,#302,#357,#412));
#246=STYLED_ITEM($,(#52),#247);
#247=ADVANCED_FACE($,(#277,#253),#248,.T.);
#248=CYLINDRICAL_SURFACE($,#249,4.54914);
#249=AXIS2_PLACEMENT_3D($,#250,#251,#252);
#250=CARTESIAN_POINT('',(7.334,0.0,4.545));
#251=DIRECTION('',(-1.,0.,0.));
#252=DIRECTION('',(0.,0.,-1.));
#253=FACE_BOUND($,#254,.T.);
#254=EDGE_LOOP($,(#255, #266));
#258=CARTESIAN_POINT('',(7.334,0.0,9.094));
#257=VERTEX_POINT('',#258);
#260=CARTESIAN_POINT('',(7.334,0.0,-0.004));
#259=VERTEX_POINT('',#260);
#256=EDGE_CURVE($,#257,#259,#261,.T.);
#261=CIRCLE($,#262,4.54914);
#263=CARTESIAN_POINT('',(7.334,0.0,4.545));
#262=AXIS2_PLACEMENT_3D($,#263,#264,#265);
#264=DIRECTION('',(1.0,0.0,0.0));
#265=DIRECTION('',(0.0,0.0,1.0));
#255=ORIENTED_EDGE('',*,*,#256,.F.);
#267=EDGE_CURVE($,#259,#257,#272,.T.);
#272=CIRCLE($,#273,4.54914);
#273=AXIS2_PLACEMENT_3D($,#263,#275,#276);
#275=DIRECTION('',(1.0,0.0,0.0));
#276=DIRECTION('',(0.0,0.0,1.0));
#266=ORIENTED_EDGE('',*,*,#267,.F.);
#277=FACE_OUTER_BOUND($,#278,.T.);
#278=EDGE_LOOP($,(#279, #290));
#282=CARTESIAN_POINT('',(6.88,0.0,9.094));
#281=VERTEX_POINT('',#282);
#284=CARTESIAN_POINT('',(6.88,0.0,-0.004));
#283=VERTEX_POINT('',#284);
#280=EDGE_CURVE($,#281,#283,#285,.T.);
#285=CIRCLE($,#286,4.54914);
#287=CARTESIAN_POINT('',(6.88,0.0,4.545));
#286=AXIS2_PLACEMENT_3D($,#287,#288,#289);
#288=DIRECTION('',(-1.0,0.0,0.0));
#289=DIRECTION('',(0.0,0.0,-1.0));
#279=ORIENTED_EDGE('',*,*,#280,.F.);
#291=EDGE_CURVE($,#283,#281,#296,.T.);
#296=CIRCLE($,#297,4.54914);
#297=AXIS2_PLACEMENT_3D($,#287,#299,#300);
#299=DIRECTION('',(-1.0,0.0,0.0));
#300=DIRECTION('',(0.0,0.0,-1.0));
#290=ORIENTED_EDGE('',*,*,#291,.F.);
#301=STYLED_ITEM($,(#52),#302);
#302 = ADVANCED_FACE ( '', ( #308, #332 ), #303, .T. ) ;
#303 = PLANE ( '',  #304 ) ;
#304 = AXIS2_PLACEMENT_3D ( '', #305, #306, #307 ) ;
#305 = CARTESIAN_POINT ( '',  ( 7.334,0.0,4.545 ) ) ;
#306 = DIRECTION ( '',  ( 1.0, 0.0, 0.0 ) ) ;
#307 = DIRECTION ( '',  ( 0.0, 0.0, 1.0 ) ) ;
#308 = FACE_OUTER_BOUND ( '', #309, .T. ) ;
#309 = EDGE_LOOP ( '', ( #310, #321 ) ) ;
#310=ORIENTED_EDGE('',*,*,#267,.T.);
#321=ORIENTED_EDGE('',*,*,#256,.T.);
#332 = FACE_BOUND ( '', #333, .T. ) ;
#333 = EDGE_LOOP ( '', ( #334, #345 ) ) ;
#337=CARTESIAN_POINT('',(7.334,0.0,9.092));
#336=VERTEX_POINT('',#337);
#339=CARTESIAN_POINT('',(7.334,0.0,-0.001));
#338=VERTEX_POINT('',#339);
#335=EDGE_CURVE($,#336,#338,#340,.T.);
#340=CIRCLE($,#341,4.5466);
#341=AXIS2_PLACEMENT_3D($,#263,#343,#344);
#343=DIRECTION('',(1.0,0.0,0.0));
#344=DIRECTION('',(0.0,0.0,-1.0));
#334=ORIENTED_EDGE('',*,*,#335,.F.);
#346=EDGE_CURVE($,#338,#336,#351,.T.);
#351=CIRCLE($,#352,4.5466);
#352=AXIS2_PLACEMENT_3D($,#263,#354,#355);
#354=DIRECTION('',(1.0,0.0,0.0));
#355=DIRECTION('',(0.0,0.0,1.0));
#345=ORIENTED_EDGE('',*,*,#346,.F.);
#356=STYLED_ITEM($,(#52),#357);
#357 = ADVANCED_FACE ( '', ( #363, #387 ), #358, .T. ) ;
#358 = PLANE ( '',  #359 ) ;
#359 = AXIS2_PLACEMENT_3D ( '', #360, #361, #362 ) ;
#360 = CARTESIAN_POINT ( '',  ( 6.88,0.0,4.545 ) ) ;
#361 = DIRECTION ( '',  ( -1.0, 0.0, 0.0 ) ) ;
#362 = DIRECTION ( '',  ( 0.0, 0.0, 1.0 ) ) ;
#363 = FACE_OUTER_BOUND ( '', #364, .T. ) ;
#364 = EDGE_LOOP ( '', ( #365, #376 ) ) ;
#365=ORIENTED_EDGE('',*,*,#291,.T.);
#376=ORIENTED_EDGE('',*,*,#280,.T.);
#387 = FACE_BOUND ( '', #388, .T. ) ;
#388 = EDGE_LOOP ( '', ( #389, #400 ) ) ;
#392=CARTESIAN_POINT('',(6.88,0.0,9.092));
#391=VERTEX_POINT('',#392);
#394=CARTESIAN_POINT('',(6.88,0.0,-0.001));
#393=VERTEX_POINT('',#394);
#390=EDGE_CURVE($,#391,#393,#395,.T.);
#395=CIRCLE($,#396,4.5466);
#396=AXIS2_PLACEMENT_3D($,#287,#398,#399);
#398=DIRECTION('',(-1.0,0.0,0.0));
#399=DIRECTION('',(0.0,0.0,-1.0));
#389=ORIENTED_EDGE('',*,*,#390,.F.);
#401=EDGE_CURVE($,#393,#391,#406,.T.);
#406=CIRCLE($,#407,4.5466);
#407=AXIS2_PLACEMENT_3D($,#287,#409,#410);
#409=DIRECTION('',(-1.0,0.0,0.0));
#410=DIRECTION('',(0.0,0.0,1.0));
#400=ORIENTED_EDGE('',*,*,#401,.F.);
#411=STYLED_ITEM($,(#52),#412);
#412=ADVANCED_FACE($,(#442,#418),#413,.F.);
#413=CYLINDRICAL_SURFACE($,#414,4.5466);
#414=AXIS2_PLACEMENT_3D($,#415,#416,#417);
#415=CARTESIAN_POINT('',(7.334,0.0,4.545));
#416=DIRECTION('',(-1.,0.,0.));
#417=DIRECTION('',(0.,0.,-1.));
#418=FACE_BOUND($,#419,.T.);
#419=EDGE_LOOP($,(#420, #431));
#420=ORIENTED_EDGE('',*,*,#346,.T.);
#431=ORIENTED_EDGE('',*,*,#335,.T.);
#442=FACE_OUTER_BOUND($,#443,.T.);
#443=EDGE_LOOP($,(#444, #455));
#444=ORIENTED_EDGE('',*,*,#401,.T.);
#455=ORIENTED_EDGE('',*,*,#390,.T.);
#467=MANIFOLD_SOLID_BREP($,#468);
#468=CLOSED_SHELL('',(#470,#501,#554,#607,#660,#713,#766,#819));
#469=STYLED_ITEM('color',(#34),#470);
#470=ADVANCED_FACE($,(#476),#471,.T.);
#471=PLANE($,#472);
#472=AXIS2_PLACEMENT_3D($,#473,#474,#475);
#473=CARTESIAN_POINT('',(6.198,0.0,4.547));
#474=DIRECTION('',(1.0,0.0,0.0));
#475=DIRECTION('',(0.,1.,0.));
#476=FACE_OUTER_BOUND($,#477,.T.);
#477=EDGE_LOOP($,(#478, #489));
#481=CARTESIAN_POINT('',(6.198,0.0,5.194));
#480=VERTEX_POINT('',#481);
#483=CARTESIAN_POINT('',(6.198,0.0,3.899));
#482=VERTEX_POINT('',#483);
#479=EDGE_CURVE($,#480,#482,#484,.T.);
#484=CIRCLE($,#485,0.6477);
#486=CARTESIAN_POINT('',(6.198,0.0,4.547));
#485=AXIS2_PLACEMENT_3D($,#486,#487,#488);
#487=DIRECTION('',(-1.0,0.0,0.0));
#488=DIRECTION('',(0.0,0.0,1.0));
#478=ORIENTED_EDGE('',*,*,#479,.F.);
#490=EDGE_CURVE($,#482,#480,#495,.T.);
#495=CIRCLE($,#496,0.6477);
#496=AXIS2_PLACEMENT_3D($,#486,#498,#499);
#498=DIRECTION('',(-1.0,0.0,0.0));
#499=DIRECTION('',(0.0,0.0,1.0));
#489=ORIENTED_EDGE('',*,*,#490,.F.);
#500=STYLED_ITEM('color',(#34),#501);
#501=ADVANCED_FACE($,(#507),#502,.T.);
#502=CYLINDRICAL_SURFACE($,#503,0.6477);
#503=AXIS2_PLACEMENT_3D($,#504,#505,#506);
#504=CARTESIAN_POINT('',(2.267,0.0,4.547));
#505=DIRECTION('',(1.0,0.0,0.0));
#506=DIRECTION('',(0.0,-1.0,0.0));
#507=FACE_OUTER_BOUND($,#508,.T.);
#508=EDGE_LOOP($,(#531, #509, #541, #520));
#534=CARTESIAN_POINT('',(2.267,0.0,3.899));
#533=VERTEX_POINT('',#534);
#532=EDGE_CURVE('',#533,#482,#537,.T.);
#537=LINE('',#534,#539);
#539=VECTOR('',#540,3.93065);
#540=DIRECTION('',(1.0,0.0,0.0));
#531=ORIENTED_EDGE('',*,*,#532,.F.);
#512=CARTESIAN_POINT('',(2.267,0.0,5.194));
#511=VERTEX_POINT('',#512);
#510=EDGE_CURVE($,#511,#533,#515,.T.);
#515=CIRCLE($,#516,0.6477);
#517=CARTESIAN_POINT('',(2.267,0.0,4.547));
#516=AXIS2_PLACEMENT_3D($,#517,#518,#519);
#518=DIRECTION('',(-1.0,0.0,0.0));
#519=DIRECTION('',(0.0,0.0,1.0));
#509=ORIENTED_EDGE('',*,*,#510,.F.);
#542=EDGE_CURVE('',#480,#511,#547,.T.);
#547=LINE('',#481,#549);
#549=VECTOR('',#550,3.93065);
#550=DIRECTION('',(-1.0,0.0,0.0));
#541=ORIENTED_EDGE('',*,*,#542,.F.);
#520=ORIENTED_EDGE('',*,*,#479,.T.);
#553=STYLED_ITEM('color',(#34),#554);
#554=ADVANCED_FACE($,(#560),#555,.T.);
#555=CYLINDRICAL_SURFACE($,#556,0.6477);
#556=AXIS2_PLACEMENT_3D($,#557,#558,#559);
#557=CARTESIAN_POINT('',(2.267,0.0,4.547));
#558=DIRECTION('',(1.0,0.0,0.0));
#559=DIRECTION('',(0.0,-1.0,0.0));
#560=FACE_OUTER_BOUND($,#561,.T.);
#561=EDGE_LOOP($,(#584, #562, #594, #573));
#584=ORIENTED_EDGE('',*,*,#532,.T.);
#562=ORIENTED_EDGE('',*,*,#490,.T.);
#594=ORIENTED_EDGE('',*,*,#542,.T.);
#574=EDGE_CURVE($,#533,#511,#579,.T.);
#579=CIRCLE($,#580,0.6477);
#580=AXIS2_PLACEMENT_3D($,#517,#582,#583);
#582=DIRECTION('',(-1.0,0.0,0.0));
#583=DIRECTION('',(0.0,0.0,-1.0));
#573=ORIENTED_EDGE('',*,*,#574,.F.);
#606=STYLED_ITEM('color',(#34),#607);
#607 = ADVANCED_FACE ( '', ( #613 ), #608, .T. ) ;
#608 = TOROIDAL_SURFACE ( '', #609, 2.26695, 0.6477 ) ;
#609 = AXIS2_PLACEMENT_3D ( '', #610, #611, #612 ) ;
#610 = CARTESIAN_POINT ( '',  ( 2.267,0.0,2.28 ) ) ;
#611 = DIRECTION ( '',  ( 0.0,1.0,0.0 ) ) ;
#612 = DIRECTION ( '',  ( 0.0000000000000000000, 0.0000000000000000000, -1.000000000000000000 ) ) ;
#613 = FACE_OUTER_BOUND ( '', #614, .T. ) ;
#614 = EDGE_LOOP ( '', ( #615, #626, #637, #648 ) ) ;
#615=ORIENTED_EDGE('',*,*,#510,.T.);
#629=CARTESIAN_POINT('',(0.648,0.0,2.28));
#628=VERTEX_POINT('',#629);
#627=EDGE_CURVE($,#628,#533,#632,.T.);
#632=CIRCLE($,#633,1.61925);
#634=CARTESIAN_POINT('',(2.267,0.0,2.28));
#633=AXIS2_PLACEMENT_3D($,#634,#635,#636);
#635=DIRECTION('',(0.0,1.0,0.0));
#636=DIRECTION('',(-1.0,0.0,0.0));
#626=ORIENTED_EDGE('',*,*,#627,.F.);
#640=CARTESIAN_POINT('',(-0.648,0.0,2.28));
#639=VERTEX_POINT('',#640);
#638=EDGE_CURVE($,#639,#628,#643,.T.);
#643=CIRCLE($,#644,0.6477);
#645=CARTESIAN_POINT('',(0.0,0.0,2.28));
#644=AXIS2_PLACEMENT_3D($,#645,#646,#647);
#646=DIRECTION('',(0.0,0.0,-1.0));
#647=DIRECTION('',(1.0,0.0,0.0));
#637=ORIENTED_EDGE('',*,*,#638,.F.);
#649=EDGE_CURVE($,#511,#639,#654,.T.);
#654=CIRCLE($,#655,2.91465);
#655=AXIS2_PLACEMENT_3D($,#634,#657,#658);
#657=DIRECTION('',(0.0,-1.0,0.0));
#658=DIRECTION('',(-1.0,0.0,0.0));
#648=ORIENTED_EDGE('',*,*,#649,.F.);
#659=STYLED_ITEM('color',(#34),#660);
#660 = ADVANCED_FACE ( '', ( #666 ), #661, .T. ) ;
#661 = TOROIDAL_SURFACE ( '', #662, 2.26695, 0.6477 ) ;
#662 = AXIS2_PLACEMENT_3D ( '', #663, #664, #665 ) ;
#663 = CARTESIAN_POINT ( '',  ( 2.267,0.0,2.28 ) ) ;
#664 = DIRECTION ( '',  ( 0.0,-1.0,0.0 ) ) ;
#665 = DIRECTION ( '',  ( 0.0000000000000000000, 0.0000000000000000000, 1.000000000000000000 ) ) ;
#666 = FACE_OUTER_BOUND ( '', #667, .T. ) ;
#667 = EDGE_LOOP ( '', ( #668, #679, #690, #701 ) ) ;
#669=EDGE_CURVE($,#628,#639,#674,.T.);
#674=CIRCLE($,#675,0.6477);
#675=AXIS2_PLACEMENT_3D($,#645,#677,#678);
#677=DIRECTION('',(0.0,0.0,-1.0));
#678=DIRECTION('',(1.0,0.0,0.0));
#668=ORIENTED_EDGE('',*,*,#669,.F.);
#679=ORIENTED_EDGE('',*,*,#627,.T.);
#690=ORIENTED_EDGE('',*,*,#574,.T.);
#701=ORIENTED_EDGE('',*,*,#649,.T.);
#712=STYLED_ITEM('color',(#34),#713);
#713=ADVANCED_FACE($,(#719),#714,.T.);
#714=CYLINDRICAL_SURFACE($,#715,0.6477);
#715=AXIS2_PLACEMENT_3D($,#716,#717,#718);
#716=CARTESIAN_POINT('',(0.0,0.0,-2.54));
#717=DIRECTION('',(0.0,0.0,1.0));
#718=DIRECTION('',(0.0,-1.0,0.0));
#719=FACE_OUTER_BOUND($,#720,.T.);
#720=EDGE_LOOP($,(#743, #721, #753, #732));
#746=CARTESIAN_POINT('',(0.648,0.0,-2.54));
#745=VERTEX_POINT('',#746);
#744=EDGE_CURVE('',#745,#628,#749,.T.);
#749=LINE('',#746,#751);
#751=VECTOR('',#752,4.81965);
#752=DIRECTION('',(0.0,0.0,1.0));
#743=ORIENTED_EDGE('',*,*,#744,.F.);
#724=CARTESIAN_POINT('',(-0.648,0.0,-2.54));
#723=VERTEX_POINT('',#724);
#722=EDGE_CURVE($,#723,#745,#727,.T.);
#727=CIRCLE($,#728,0.6477);
#729=CARTESIAN_POINT('',(0.0,0.0,-2.54));
#728=AXIS2_PLACEMENT_3D($,#729,#730,#731);
#730=DIRECTION('',(0.0,0.0,-1.0));
#731=DIRECTION('',(-1.0,0.0,0.0));
#721=ORIENTED_EDGE('',*,*,#722,.F.);
#754=EDGE_CURVE('',#639,#723,#759,.T.);
#759=LINE('',#640,#761);
#761=VECTOR('',#762,4.81965);
#762=DIRECTION('',(0.0,0.0,-1.0));
#753=ORIENTED_EDGE('',*,*,#754,.F.);
#732=ORIENTED_EDGE('',*,*,#638,.T.);
#765=STYLED_ITEM('color',(#34),#766);
#766=ADVANCED_FACE($,(#772),#767,.T.);
#767=CYLINDRICAL_SURFACE($,#768,0.6477);
#768=AXIS2_PLACEMENT_3D($,#769,#770,#771);
#769=CARTESIAN_POINT('',(0.0,0.0,-2.54));
#770=DIRECTION('',(0.0,0.0,1.0));
#771=DIRECTION('',(0.0,-1.0,0.0));
#772=FACE_OUTER_BOUND($,#773,.T.);
#773=EDGE_LOOP($,(#796, #774, #806, #785));
#796=ORIENTED_EDGE('',*,*,#754,.T.);
#775=EDGE_CURVE($,#745,#723,#780,.T.);
#780=CIRCLE($,#781,0.6477);
#781=AXIS2_PLACEMENT_3D($,#729,#783,#784);
#783=DIRECTION('',(0.0,0.0,-1.0));
#784=DIRECTION('',(-1.0,0.0,0.0));
#774=ORIENTED_EDGE('',*,*,#775,.F.);
#806=ORIENTED_EDGE('',*,*,#744,.T.);
#785=ORIENTED_EDGE('',*,*,#669,.T.);
#818=STYLED_ITEM('color',(#34),#819);
#819=ADVANCED_FACE($,(#825),#820,.T.);
#820=PLANE($,#821);
#821=AXIS2_PLACEMENT_3D($,#822,#823,#824);
#822=CARTESIAN_POINT('',(0.0,0.0,-2.54));
#823=DIRECTION('',(0.0,0.0,-1.0));
#824=DIRECTION('',(0.,1.,0.));
#825=FACE_OUTER_BOUND($,#826,.T.);
#826=EDGE_LOOP($,(#827, #838));
#827=ORIENTED_EDGE('',*,*,#722,.T.);
#838=ORIENTED_EDGE('',*,*,#775,.T.);
#849=MANIFOLD_SOLID_BREP($,#850);
#850=CLOSED_SHELL('',(#852,#883,#936,#989,#1042,#1095,#1148,#1201));
#851=STYLED_ITEM('color',(#34),#852);
#852=ADVANCED_FACE($,(#858),#853,.T.);
#853=PLANE($,#854);
#854=AXIS2_PLACEMENT_3D($,#855,#856,#857);
#855=CARTESIAN_POINT('',(15.291,0.0,4.547));
#856=DIRECTION('',(-1.0,0.0,0.0));
#857=DIRECTION('',(0.,1.,0.));
#858=FACE_OUTER_BOUND($,#859,.T.);
#859=EDGE_LOOP($,(#860, #871));
#863=CARTESIAN_POINT('',(15.291,0.0,5.194));
#862=VERTEX_POINT('',#863);
#865=CARTESIAN_POINT('',(15.291,0.0,3.899));
#864=VERTEX_POINT('',#865);
#861=EDGE_CURVE($,#862,#864,#866,.T.);
#866=CIRCLE($,#867,0.6477);
#868=CARTESIAN_POINT('',(15.291,0.0,4.547));
#867=AXIS2_PLACEMENT_3D($,#868,#869,#870);
#869=DIRECTION('',(1.0,0.0,0.0));
#870=DIRECTION('',(0.0,0.0,1.0));
#860=ORIENTED_EDGE('',*,*,#861,.F.);
#872=EDGE_CURVE($,#864,#862,#877,.T.);
#877=CIRCLE($,#878,0.6477);
#878=AXIS2_PLACEMENT_3D($,#868,#880,#881);
#880=DIRECTION('',(1.0,0.0,0.0));
#881=DIRECTION('',(0.0,0.0,1.0));
#871=ORIENTED_EDGE('',*,*,#872,.F.);
#882=STYLED_ITEM('color',(#34),#883);
#883=ADVANCED_FACE($,(#889),#884,.T.);
#884=CYLINDRICAL_SURFACE($,#885,0.6477);
#885=AXIS2_PLACEMENT_3D($,#886,#887,#888);
#886=CARTESIAN_POINT('',(19.221,0.0,4.547));
#887=DIRECTION('',(-1.0,0.0,0.0));
#888=DIRECTION('',(0.0,1.0,0.0));
#889=FACE_OUTER_BOUND($,#890,.T.);
#890=EDGE_LOOP($,(#913, #891, #923, #902));
#916=CARTESIAN_POINT('',(19.221,0.0,3.899));
#915=VERTEX_POINT('',#916);
#914=EDGE_CURVE('',#915,#864,#919,.T.);
#919=LINE('',#916,#921);
#921=VECTOR('',#922,3.93065);
#922=DIRECTION('',(-1.0,0.0,0.0));
#913=ORIENTED_EDGE('',*,*,#914,.F.);
#894=CARTESIAN_POINT('',(19.221,0.0,5.194));
#893=VERTEX_POINT('',#894);
#892=EDGE_CURVE($,#893,#915,#897,.T.);
#897=CIRCLE($,#898,0.6477);
#899=CARTESIAN_POINT('',(19.221,0.0,4.547));
#898=AXIS2_PLACEMENT_3D($,#899,#900,#901);
#900=DIRECTION('',(1.0,0.0,0.0));
#901=DIRECTION('',(0.0,0.0,1.0));
#891=ORIENTED_EDGE('',*,*,#892,.F.);
#924=EDGE_CURVE('',#862,#893,#929,.T.);
#929=LINE('',#863,#931);
#931=VECTOR('',#932,3.93065);
#932=DIRECTION('',(1.0,0.0,0.0));
#923=ORIENTED_EDGE('',*,*,#924,.F.);
#902=ORIENTED_EDGE('',*,*,#861,.T.);
#935=STYLED_ITEM('color',(#34),#936);
#936=ADVANCED_FACE($,(#942),#937,.T.);
#937=CYLINDRICAL_SURFACE($,#938,0.6477);
#938=AXIS2_PLACEMENT_3D($,#939,#940,#941);
#939=CARTESIAN_POINT('',(19.221,0.0,4.547));
#940=DIRECTION('',(-1.0,0.0,0.0));
#941=DIRECTION('',(0.0,1.0,0.0));
#942=FACE_OUTER_BOUND($,#943,.T.);
#943=EDGE_LOOP($,(#966, #944, #976, #955));
#966=ORIENTED_EDGE('',*,*,#914,.T.);
#944=ORIENTED_EDGE('',*,*,#872,.T.);
#976=ORIENTED_EDGE('',*,*,#924,.T.);
#956=EDGE_CURVE($,#915,#893,#961,.T.);
#961=CIRCLE($,#962,0.6477);
#962=AXIS2_PLACEMENT_3D($,#899,#964,#965);
#964=DIRECTION('',(1.0,0.0,0.0));
#965=DIRECTION('',(0.0,0.0,-1.0));
#955=ORIENTED_EDGE('',*,*,#956,.F.);
#988=STYLED_ITEM('color',(#34),#989);
#989 = ADVANCED_FACE ( '', ( #995 ), #990, .T. ) ;
#990 = TOROIDAL_SURFACE ( '', #991, 2.26695, 0.6477 ) ;
#991 = AXIS2_PLACEMENT_3D ( '', #992, #993, #994 ) ;
#992 = CARTESIAN_POINT ( '',  ( 19.221,0.0,2.28 ) ) ;
#993 = DIRECTION ( '',  ( 0.0,-1.0,0.0 ) ) ;
#994 = DIRECTION ( '',  ( 0.0000000000000000000, 0.0000000000000000000, -1.000000000000000000 ) ) ;
#995 = FACE_OUTER_BOUND ( '', #996, .T. ) ;
#996 = EDGE_LOOP ( '', ( #997, #1008, #1019, #1030 ) ) ;
#997=ORIENTED_EDGE('',*,*,#892,.T.);
#1011=CARTESIAN_POINT('',(20.841,0.0,2.28));
#1010=VERTEX_POINT('',#1011);
#1009=EDGE_CURVE($,#1010,#915,#1014,.T.);
#1014=CIRCLE($,#1015,1.61925);
#1016=CARTESIAN_POINT('',(19.221,0.0,2.28));
#1015=AXIS2_PLACEMENT_3D($,#1016,#1017,#1018);
#1017=DIRECTION('',(0.0,-1.0,0.0));
#1018=DIRECTION('',(1.0,0.0,0.0));
#1008=ORIENTED_EDGE('',*,*,#1009,.F.);
#1022=CARTESIAN_POINT('',(22.136,0.0,2.28));
#1021=VERTEX_POINT('',#1022);
#1020=EDGE_CURVE($,#1021,#1010,#1025,.T.);
#1025=CIRCLE($,#1026,0.6477);
#1027=CARTESIAN_POINT('',(21.488,0.0,2.28));
#1026=AXIS2_PLACEMENT_3D($,#1027,#1028,#1029);
#1028=DIRECTION('',(0.0,0.0,-1.0));
#1029=DIRECTION('',(-1.0,0.0,0.0));
#1019=ORIENTED_EDGE('',*,*,#1020,.F.);
#1031=EDGE_CURVE($,#893,#1021,#1036,.T.);
#1036=CIRCLE($,#1037,2.91465);
#1037=AXIS2_PLACEMENT_3D($,#1016,#1039,#1040);
#1039=DIRECTION('',(0.0,1.0,0.0));
#1040=DIRECTION('',(1.0,0.0,0.0));
#1030=ORIENTED_EDGE('',*,*,#1031,.F.);
#1041=STYLED_ITEM('color',(#34),#1042);
#1042 = ADVANCED_FACE ( '', ( #1048 ), #1043, .T. ) ;
#1043 = TOROIDAL_SURFACE ( '', #1044, 2.26695, 0.6477 ) ;
#1044 = AXIS2_PLACEMENT_3D ( '', #1045, #1046, #1047 ) ;
#1045 = CARTESIAN_POINT ( '',  ( 19.221,0.0,2.28 ) ) ;
#1046 = DIRECTION ( '',  ( 0.0,1.0,0.0 ) ) ;
#1047 = DIRECTION ( '',  ( 0.0000000000000000000, 0.0000000000000000000, 1.000000000000000000 ) ) ;
#1048 = FACE_OUTER_BOUND ( '', #1049, .T. ) ;
#1049 = EDGE_LOOP ( '', ( #1050, #1061, #1072, #1083 ) ) ;
#1051=EDGE_CURVE($,#1010,#1021,#1056,.T.);
#1056=CIRCLE($,#1057,0.6477);
#1057=AXIS2_PLACEMENT_3D($,#1027,#1059,#1060);
#1059=DIRECTION('',(0.0,0.0,-1.0));
#1060=DIRECTION('',(-1.0,0.0,0.0));
#1050=ORIENTED_EDGE('',*,*,#1051,.F.);
#1061=ORIENTED_EDGE('',*,*,#1009,.T.);
#1072=ORIENTED_EDGE('',*,*,#956,.T.);
#1083=ORIENTED_EDGE('',*,*,#1031,.T.);
#1094=STYLED_ITEM('color',(#34),#1095);
#1095=ADVANCED_FACE($,(#1101),#1096,.T.);
#1096=CYLINDRICAL_SURFACE($,#1097,0.6477);
#1097=AXIS2_PLACEMENT_3D($,#1098,#1099,#1100);
#1098=CARTESIAN_POINT('',(21.488,0.0,-2.54));
#1099=DIRECTION('',(0.0,0.0,1.0));
#1100=DIRECTION('',(0.0,1.0,0.0));
#1101=FACE_OUTER_BOUND($,#1102,.T.);
#1102=EDGE_LOOP($,(#1125, #1103, #1135, #1114));
#1128=CARTESIAN_POINT('',(20.841,0.0,-2.54));
#1127=VERTEX_POINT('',#1128);
#1126=EDGE_CURVE('',#1127,#1010,#1131,.T.);
#1131=LINE('',#1128,#1133);
#1133=VECTOR('',#1134,4.81965);
#1134=DIRECTION('',(0.0,0.0,1.0));
#1125=ORIENTED_EDGE('',*,*,#1126,.F.);
#1106=CARTESIAN_POINT('',(22.136,0.0,-2.54));
#1105=VERTEX_POINT('',#1106);
#1104=EDGE_CURVE($,#1105,#1127,#1109,.T.);
#1109=CIRCLE($,#1110,0.6477);
#1111=CARTESIAN_POINT('',(21.488,0.0,-2.54));
#1110=AXIS2_PLACEMENT_3D($,#1111,#1112,#1113);
#1112=DIRECTION('',(0.0,0.0,-1.0));
#1113=DIRECTION('',(1.0,0.0,0.0));
#1103=ORIENTED_EDGE('',*,*,#1104,.F.);
#1136=EDGE_CURVE('',#1021,#1105,#1141,.T.);
#1141=LINE('',#1022,#1143);
#1143=VECTOR('',#1144,4.81965);
#1144=DIRECTION('',(0.0,0.0,-1.0));
#1135=ORIENTED_EDGE('',*,*,#1136,.F.);
#1114=ORIENTED_EDGE('',*,*,#1020,.T.);
#1147=STYLED_ITEM('color',(#34),#1148);
#1148=ADVANCED_FACE($,(#1154),#1149,.T.);
#1149=CYLINDRICAL_SURFACE($,#1150,0.6477);
#1150=AXIS2_PLACEMENT_3D($,#1151,#1152,#1153);
#1151=CARTESIAN_POINT('',(21.488,0.0,-2.54));
#1152=DIRECTION('',(0.0,0.0,1.0));
#1153=DIRECTION('',(0.0,1.0,0.0));
#1154=FACE_OUTER_BOUND($,#1155,.T.);
#1155=EDGE_LOOP($,(#1178, #1156, #1188, #1167));
#1178=ORIENTED_EDGE('',*,*,#1136,.T.);
#1157=EDGE_CURVE($,#1127,#1105,#1162,.T.);
#1162=CIRCLE($,#1163,0.6477);
#1163=AXIS2_PLACEMENT_3D($,#1111,#1165,#1166);
#1165=DIRECTION('',(0.0,0.0,-1.0));
#1166=DIRECTION('',(1.0,0.0,0.0));
#1156=ORIENTED_EDGE('',*,*,#1157,.F.);
#1188=ORIENTED_EDGE('',*,*,#1126,.T.);
#1167=ORIENTED_EDGE('',*,*,#1051,.T.);
#1200=STYLED_ITEM('color',(#34),#1201);
#1201=ADVANCED_FACE($,(#1207),#1202,.T.);
#1202=PLANE($,#1203);
#1203=AXIS2_PLACEMENT_3D($,#1204,#1205,#1206);
#1204=CARTESIAN_POINT('',(21.488,0.0,-2.54));
#1205=DIRECTION('',(0.0,0.0,-1.0));
#1206=DIRECTION('',(0.,1.,0.));
#1207=FACE_OUTER_BOUND($,#1208,.T.);
#1208=EDGE_LOOP($,(#1209, #1220));
#1209=ORIENTED_EDGE('',*,*,#1104,.T.);
#1220=ORIENTED_EDGE('',*,*,#1157,.T.);
ENDSEC;
END-ISO-10303-21;
