ISO-10303-21;
HEADER;
FILE_DESCRIPTION(('STEP AP214'),'1');
FILE_NAME('POT_3386F','2024-08-14T07:28:45',(''),(''),'','','');
FILE_SCHEMA(('AUTOMOTIVE_DESIGN'));
ENDSEC;
DATA;
#1=SHAPE_DEFINITION_REPRESENTATION(#2,#3);
#2=PRODUCT_DEFINITION_SHAPE('',$,#4);
#3=SHAPE_REPRESENTATION('',(#197,#252,#307,#362,#418,#19),#11);
#4=PRODUCT_DEFINITION('design','example product_definition',#6,#5);
#5=PRODUCT_DEFINITION_CONTEXT('3D Mechanical Parts',#10,'design');
#6=PRODUCT_DEFINITION_FORMATION('1.0','first version',#8);
#7=APPLICATION_PROTOCOL_DEFINITION('international standard','automotive_design',2003,#10);
#8=PRODUCT('product','part','',(#9));
#9=PRODUCT_CONTEXT('3D Mechanical Parts',#10,'mechanical');
#10=APPLICATION_CONTEXT('Core Data for Automotive Mechanical Design Process');
#11=(GEOMETRIC_REPRESENTATION_CONTEXT(3) GLOBAL_UNCERTAINTY_ASSIGNED_CONTEXT((#12)) GLOBAL_UNIT_ASSIGNED_CONTEXT((#13,#14,#18)) REPRESENTATION_CONTEXT('ID1','3D'));
#12=UNCERTAINTY_MEASURE_WITH_UNIT(LENGTH_MEASURE(1.E-005),#13,'DISTANCE_ACCURACY_VALUE','Maximum model space distance between geometric entities at asserted connectivities');
#13=(LENGTH_UNIT() NAMED_UNIT(*) SI_UNIT(.MILLI.,.METRE.));
#14=(CONVERSION_BASED_UNIT('degree',#16) NAMED_UNIT(#15) PLANE_ANGLE_UNIT());
#15=DIMENSIONAL_EXPONENTS(0.,0.,0.,0.,0.,0.,0.);
#16=MEASURE_WITH_UNIT(PLANE_ANGLE_MEASURE(0.01745329252),#17);
#17=(NAMED_UNIT(*) PLANE_ANGLE_UNIT() SI_UNIT($,.RADIAN.));
#18=(NAMED_UNIT(*) SI_UNIT($,.STERADIAN.) SOLID_ANGLE_UNIT());
#19=AXIS2_PLACEMENT_3D('',#20,#21,#22);
#20=CARTESIAN_POINT('',(0.0,0.0,0.0));
#21=DIRECTION('',(0.0,0.0,1.0));
#22=DIRECTION('',(1.0,0.0,0.0));
#25=MECHANICAL_DESIGN_GEOMETRIC_PRESENTATION_REPRESENTATION($,(#249,#250,#251,#304,#305,#306,#359,#360,#361,#414,#415,#416,#420,#469,#518,#567,#616,#665),#11);
#26=PRODUCT_CATEGORY_RELATIONSHIP('','',#27,#28);
#27=PRODUCT_CATEGORY('part','');
#28=PRODUCT_RELATED_PRODUCT_CATEGORY('','',(#8));
#34=PRESENTATION_STYLE_ASSIGNMENT((#35,#40));
#35=SURFACE_STYLE_USAGE(.BOTH.,#36);
#36=SURFACE_SIDE_STYLE('',(#37));
#37=SURFACE_STYLE_FILL_AREA(#38);
#38=FILL_AREA_STYLE('',(#39));
#39=FILL_AREA_STYLE_COLOUR('',#41);
#40=CURVE_STYLE('',#42,POSITIVE_LENGTH_MEASURE(0.1),#41);
#41=COLOUR_RGB('Aluminum',0.725,0.725,0.725);
#42=DRAUGHTING_PRE_DEFINED_CURVE_FONT('continuous');
#43=PRESENTATION_STYLE_ASSIGNMENT((#44,#49));
#44=SURFACE_STYLE_USAGE(.BOTH.,#45);
#45=SURFACE_SIDE_STYLE('',(#46));
#46=SURFACE_STYLE_FILL_AREA(#47);
#47=FILL_AREA_STYLE('',(#48));
#48=FILL_AREA_STYLE_COLOUR('',#50);
#49=CURVE_STYLE('',#51,POSITIVE_LENGTH_MEASURE(0.1),#50);
#50=COLOUR_RGB('Black',0.196,0.196,0.196);
#51=DRAUGHTING_PRE_DEFINED_CURVE_FONT('continuous');
#52=PRESENTATION_STYLE_ASSIGNMENT((#53,#58));
#53=SURFACE_STYLE_USAGE(.BOTH.,#54);
#54=SURFACE_SIDE_STYLE('',(#55));
#55=SURFACE_STYLE_FILL_AREA(#56);
#56=FILL_AREA_STYLE('',(#57));
#57=FILL_AREA_STYLE_COLOUR('',#59);
#58=CURVE_STYLE('',#60,POSITIVE_LENGTH_MEASURE(0.1),#59);
#59=COLOUR_RGB('Pin1',0.588,0.588,0.588);
#60=DRAUGHTING_PRE_DEFINED_CURVE_FONT('continuous');
#61=PRESENTATION_STYLE_ASSIGNMENT((#62,#67));
#62=SURFACE_STYLE_USAGE(.BOTH.,#63);
#63=SURFACE_SIDE_STYLE('',(#64));
#64=SURFACE_STYLE_FILL_AREA(#65);
#65=FILL_AREA_STYLE('',(#66));
#66=FILL_AREA_STYLE_COLOUR('',#68);
#67=CURVE_STYLE('',#69,POSITIVE_LENGTH_MEASURE(0.1),#68);
#68=COLOUR_RGB('HeatTab',0.588,0.588,0.588);
#69=DRAUGHTING_PRE_DEFINED_CURVE_FONT('continuous');
#70=PRESENTATION_STYLE_ASSIGNMENT((#71,#76));
#71=SURFACE_STYLE_USAGE(.BOTH.,#72);
#72=SURFACE_SIDE_STYLE('',(#73));
#73=SURFACE_STYLE_FILL_AREA(#74);
#74=FILL_AREA_STYLE('',(#75));
#75=FILL_AREA_STYLE_COLOUR('',#77);
#76=CURVE_STYLE('',#78,POSITIVE_LENGTH_MEASURE(0.1),#77);
#77=COLOUR_RGB('Gold',0.843,0.686,0.0);
#78=DRAUGHTING_PRE_DEFINED_CURVE_FONT('continuous');
#79=PRESENTATION_STYLE_ASSIGNMENT((#80,#85));
#80=SURFACE_STYLE_USAGE(.BOTH.,#81);
#81=SURFACE_SIDE_STYLE('',(#82));
#82=SURFACE_STYLE_FILL_AREA(#83);
#83=FILL_AREA_STYLE('',(#84));
#84=FILL_AREA_STYLE_COLOUR('',#86);
#85=CURVE_STYLE('',#87,POSITIVE_LENGTH_MEASURE(0.1),#86);
#86=COLOUR_RGB('LightBlue',0.392,0.584,0.929);
#87=DRAUGHTING_PRE_DEFINED_CURVE_FONT('continuous');
#88=PRESENTATION_STYLE_ASSIGNMENT((#89,#94));
#89=SURFACE_STYLE_USAGE(.BOTH.,#90);
#90=SURFACE_SIDE_STYLE('',(#91));
#91=SURFACE_STYLE_FILL_AREA(#92);
#92=FILL_AREA_STYLE('',(#93));
#93=FILL_AREA_STYLE_COLOUR('',#95);
#94=CURVE_STYLE('',#96,POSITIVE_LENGTH_MEASURE(0.1),#95);
#95=COLOUR_RGB('Brown',0.459,0.345,0.176);
#96=DRAUGHTING_PRE_DEFINED_CURVE_FONT('continuous');
#97=PRESENTATION_STYLE_ASSIGNMENT((#98,#103));
#98=SURFACE_STYLE_USAGE(.BOTH.,#99);
#99=SURFACE_SIDE_STYLE('',(#100));
#100=SURFACE_STYLE_FILL_AREA(#101);
#101=FILL_AREA_STYLE('',(#102));
#102=FILL_AREA_STYLE_COLOUR('',#104);
#103=CURVE_STYLE('',#105,POSITIVE_LENGTH_MEASURE(0.1),#104);
#104=COLOUR_RGB('Tan',0.784,0.686,0.51);
#105=DRAUGHTING_PRE_DEFINED_CURVE_FONT('continuous');
#106=PRESENTATION_STYLE_ASSIGNMENT((#107,#112));
#107=SURFACE_STYLE_USAGE(.BOTH.,#108);
#108=SURFACE_SIDE_STYLE('',(#109));
#109=SURFACE_STYLE_FILL_AREA(#110);
#110=FILL_AREA_STYLE('',(#111));
#111=FILL_AREA_STYLE_COLOUR('',#113);
#112=CURVE_STYLE('',#114,POSITIVE_LENGTH_MEASURE(0.1),#113);
#113=COLOUR_RGB('Gray',0.431,0.431,0.431);
#114=DRAUGHTING_PRE_DEFINED_CURVE_FONT('continuous');
#115=PRESENTATION_STYLE_ASSIGNMENT((#116,#121));
#116=SURFACE_STYLE_USAGE(.BOTH.,#117);
#117=SURFACE_SIDE_STYLE('',(#118));
#118=SURFACE_STYLE_FILL_AREA(#119);
#119=FILL_AREA_STYLE('',(#120));
#120=FILL_AREA_STYLE_COLOUR('',#122);
#121=CURVE_STYLE('',#123,POSITIVE_LENGTH_MEASURE(0.1),#122);
#122=COLOUR_RGB('Red',0.6,0.0,0.0);
#123=DRAUGHTING_PRE_DEFINED_CURVE_FONT('continuous');
#124=PRESENTATION_STYLE_ASSIGNMENT((#125,#130));
#125=SURFACE_STYLE_USAGE(.BOTH.,#126);
#126=SURFACE_SIDE_STYLE('',(#127));
#127=SURFACE_STYLE_FILL_AREA(#128);
#128=FILL_AREA_STYLE('',(#129));
#129=FILL_AREA_STYLE_COLOUR('',#131);
#130=CURVE_STYLE('',#132,POSITIVE_LENGTH_MEASURE(0.1),#131);
#131=COLOUR_RGB('Blue',0.157,0.157,0.588);
#132=DRAUGHTING_PRE_DEFINED_CURVE_FONT('continuous');
#133=PRESENTATION_STYLE_ASSIGNMENT((#134,#139));
#134=SURFACE_STYLE_USAGE(.BOTH.,#135);
#135=SURFACE_SIDE_STYLE('',(#136));
#136=SURFACE_STYLE_FILL_AREA(#137);
#137=FILL_AREA_STYLE('',(#138));
#138=FILL_AREA_STYLE_COLOUR('',#140);
#139=CURVE_STYLE('',#141,POSITIVE_LENGTH_MEASURE(0.1),#140);
#140=COLOUR_RGB('Maroon',0.294,0.0,0.0);
#141=DRAUGHTING_PRE_DEFINED_CURVE_FONT('continuous');
#142=PRESENTATION_STYLE_ASSIGNMENT((#143,#148));
#143=SURFACE_STYLE_USAGE(.BOTH.,#144);
#144=SURFACE_SIDE_STYLE('',(#145));
#145=SURFACE_STYLE_FILL_AREA(#146);
#146=FILL_AREA_STYLE('',(#147));
#147=FILL_AREA_STYLE_COLOUR('',#149);
#148=CURVE_STYLE('',#150,POSITIVE_LENGTH_MEASURE(0.1),#149);
#149=COLOUR_RGB('Green',0.0,0.294,0.0);
#150=DRAUGHTING_PRE_DEFINED_CURVE_FONT('continuous');
#151=PRESENTATION_STYLE_ASSIGNMENT((#152,#157));
#152=SURFACE_STYLE_USAGE(.BOTH.,#153);
#153=SURFACE_SIDE_STYLE('',(#154));
#154=SURFACE_STYLE_FILL_AREA(#155);
#155=FILL_AREA_STYLE('',(#156));
#156=FILL_AREA_STYLE_COLOUR('',#158);
#157=CURVE_STYLE('',#159,POSITIVE_LENGTH_MEASURE(0.1),#158);
#158=COLOUR_RGB('Pin1Wrap',0.98,0.706,0.176);
#159=DRAUGHTING_PRE_DEFINED_CURVE_FONT('continuous');
#160=PRESENTATION_STYLE_ASSIGNMENT((#161,#166));
#161=SURFACE_STYLE_USAGE(.BOTH.,#162);
#162=SURFACE_SIDE_STYLE('',(#163));
#163=SURFACE_STYLE_FILL_AREA(#164);
#164=FILL_AREA_STYLE('',(#165));
#165=FILL_AREA_STYLE_COLOUR('',#167);
#166=CURVE_STYLE('',#168,POSITIVE_LENGTH_MEASURE(0.1),#167);
#167=COLOUR_RGB('Pin1Rad',0.588,0.588,0.588);
#168=DRAUGHTING_PRE_DEFINED_CURVE_FONT('continuous');
#169=PRESENTATION_STYLE_ASSIGNMENT((#170,#175));
#170=SURFACE_STYLE_USAGE(.BOTH.,#171);
#171=SURFACE_SIDE_STYLE('',(#172));
#172=SURFACE_STYLE_FILL_AREA(#173);
#173=FILL_AREA_STYLE('',(#174));
#174=FILL_AREA_STYLE_COLOUR('',#176);
#175=CURVE_STYLE('',#177,POSITIVE_LENGTH_MEASURE(0.1),#176);
#176=COLOUR_RGB('Pin1Axial',0.98,0.706,0.176);
#177=DRAUGHTING_PRE_DEFINED_CURVE_FONT('continuous');
#178=PRESENTATION_STYLE_ASSIGNMENT((#179,#184));
#179=SURFACE_STYLE_USAGE(.BOTH.,#180);
#180=SURFACE_SIDE_STYLE('',(#181));
#181=SURFACE_STYLE_FILL_AREA(#182);
#182=FILL_AREA_STYLE('',(#183));
#183=FILL_AREA_STYLE_COLOUR('',#185);
#184=CURVE_STYLE('',#186,POSITIVE_LENGTH_MEASURE(0.1),#185);
#185=COLOUR_RGB('Pin1Tant',0.459,0.345,0.176);
#186=DRAUGHTING_PRE_DEFINED_CURVE_FONT('continuous');
#187=PRESENTATION_STYLE_ASSIGNMENT((#188,#193));
#188=SURFACE_STYLE_USAGE(.BOTH.,#189);
#189=SURFACE_SIDE_STYLE('',(#190));
#190=SURFACE_STYLE_FILL_AREA(#191);
#191=FILL_AREA_STYLE('',(#192));
#192=FILL_AREA_STYLE_COLOUR('',#194);
#193=CURVE_STYLE('',#195,POSITIVE_LENGTH_MEASURE(0.1),#194);
#194=COLOUR_RGB('Shroud',0.235,0.235,0.235);
#195=DRAUGHTING_PRE_DEFINED_CURVE_FONT('continuous');
#197=MANIFOLD_SOLID_BREP($,#198);
#198=CLOSED_SHELL('',(#199,#200,#201));
#199=ADVANCED_FACE($,(#205,#204),#222,.T.);
#200=ADVANCED_FACE($,(#206),#202,.F.);
#201=ADVANCED_FACE($,(#207),#203,.T.);
#202=PLANE($,#227);
#203=PLANE($,#228);
#204=FACE_BOUND($,#209,.T.);
#205=FACE_OUTER_BOUND($,#208,.T.);
#206=FACE_OUTER_BOUND($,#210,.T.);
#207=FACE_OUTER_BOUND($,#211,.T.);
#208=EDGE_LOOP($,(#218));
#209=EDGE_LOOP($,(#219));
#210=EDGE_LOOP($,(#220));
#211=EDGE_LOOP($,(#221));
#212=CIRCLE($,#225,0.2794);
#213=CIRCLE($,#226,0.2794);
#214=VERTEX_POINT('',#243);
#215=VERTEX_POINT('',#245);
#216=EDGE_CURVE($,#214,#214,#212,.T.);
#217=EDGE_CURVE($,#215,#215,#213,.T.);
#218=ORIENTED_EDGE($,*,*,#216,.F.);
#219=ORIENTED_EDGE($,*,*,#217,.F.);
#220=ORIENTED_EDGE($,*,*,#217,.T.);
#221=ORIENTED_EDGE($,*,*,#216,.T.);
#222=CYLINDRICAL_SURFACE($,#224,0.2794);
#223=AXIS2_PLACEMENT_3D('placement',#241,#229,#230);
#224=AXIS2_PLACEMENT_3D($,#242,#231,#232);
#225=AXIS2_PLACEMENT_3D($,#244,#233,#234);
#226=AXIS2_PLACEMENT_3D($,#246,#235,#236);
#227=AXIS2_PLACEMENT_3D($,#247,#237,#238);
#228=AXIS2_PLACEMENT_3D($,#248,#239,#240);
#229=DIRECTION('axis',(0.,1.,0.));
#230=DIRECTION('refdir',(1.,0.,0.));
#231=DIRECTION('',(0.,0.,1.));
#232=DIRECTION('',(1.,0.,0.));
#233=DIRECTION('',(0.,0.,1.));
#234=DIRECTION('',(1.,0.,0.));
#235=DIRECTION('',(0.,0.,-1.));
#236=DIRECTION('',(1.,0.,0.));
#237=DIRECTION('',(0.,0.,1.));
#238=DIRECTION('',(0.,1.,0.));
#239=DIRECTION('',(0.,0.,1.));
#240=DIRECTION('',(0.,1.,0.));
#241=CARTESIAN_POINT('',(0.,0.,0.));
#242=CARTESIAN_POINT('',(0.0,0.0,-6.35));
#243=CARTESIAN_POINT('',(-0.279,0.0,0.0));
#244=CARTESIAN_POINT('',(0.0,0.0,0.0));
#245=CARTESIAN_POINT('',(-0.279,0.0,-6.35));
#246=CARTESIAN_POINT('',(0.0,0.0,-6.35));
#247=CARTESIAN_POINT('',(0.0,0.0,-6.35));
#248=CARTESIAN_POINT('',(0.0,0.0,0.0));
#249=STYLED_ITEM('color',(#34),#199);
#250=STYLED_ITEM('color',(#34),#200);
#251=STYLED_ITEM('color',(#34),#201);
#252=MANIFOLD_SOLID_BREP($,#253);
#253=CLOSED_SHELL('',(#254,#255,#256));
#254=ADVANCED_FACE($,(#260,#259),#277,.T.);
#255=ADVANCED_FACE($,(#261),#257,.F.);
#256=ADVANCED_FACE($,(#262),#258,.T.);
#257=PLANE($,#282);
#258=PLANE($,#283);
#259=FACE_BOUND($,#264,.T.);
#260=FACE_OUTER_BOUND($,#263,.T.);
#261=FACE_OUTER_BOUND($,#265,.T.);
#262=FACE_OUTER_BOUND($,#266,.T.);
#263=EDGE_LOOP($,(#273));
#264=EDGE_LOOP($,(#274));
#265=EDGE_LOOP($,(#275));
#266=EDGE_LOOP($,(#276));
#267=CIRCLE($,#280,0.2794);
#268=CIRCLE($,#281,0.2794);
#269=VERTEX_POINT('',#298);
#270=VERTEX_POINT('',#300);
#271=EDGE_CURVE($,#269,#269,#267,.T.);
#272=EDGE_CURVE($,#270,#270,#268,.T.);
#273=ORIENTED_EDGE($,*,*,#271,.F.);
#274=ORIENTED_EDGE($,*,*,#272,.F.);
#275=ORIENTED_EDGE($,*,*,#272,.T.);
#276=ORIENTED_EDGE($,*,*,#271,.T.);
#277=CYLINDRICAL_SURFACE($,#279,0.2794);
#278=AXIS2_PLACEMENT_3D('placement',#296,#284,#285);
#279=AXIS2_PLACEMENT_3D($,#297,#286,#287);
#280=AXIS2_PLACEMENT_3D($,#299,#288,#289);
#281=AXIS2_PLACEMENT_3D($,#301,#290,#291);
#282=AXIS2_PLACEMENT_3D($,#302,#292,#293);
#283=AXIS2_PLACEMENT_3D($,#303,#294,#295);
#284=DIRECTION('axis',(0.,1.,0.));
#285=DIRECTION('refdir',(1.,0.,0.));
#286=DIRECTION('',(0.,0.,1.));
#287=DIRECTION('',(1.,0.,0.));
#288=DIRECTION('',(0.,0.,1.));
#289=DIRECTION('',(1.,0.,0.));
#290=DIRECTION('',(0.,0.,-1.));
#291=DIRECTION('',(1.,0.,0.));
#292=DIRECTION('',(0.,0.,1.));
#293=DIRECTION('',(0.,1.,0.));
#294=DIRECTION('',(0.,0.,1.));
#295=DIRECTION('',(0.,1.,0.));
#296=CARTESIAN_POINT('',(0.,0.,0.));
#297=CARTESIAN_POINT('',(2.54,5.08,-6.35));
#298=CARTESIAN_POINT('',(2.261,5.08,0.0));
#299=CARTESIAN_POINT('',(2.54,5.08,0.0));
#300=CARTESIAN_POINT('',(2.261,5.08,-6.35));
#301=CARTESIAN_POINT('',(2.54,5.08,-6.35));
#302=CARTESIAN_POINT('',(2.54,5.08,-6.35));
#303=CARTESIAN_POINT('',(2.54,5.08,0.0));
#304=STYLED_ITEM('color',(#34),#254);
#305=STYLED_ITEM('color',(#34),#255);
#306=STYLED_ITEM('color',(#34),#256);
#307=MANIFOLD_SOLID_BREP($,#308);
#308=CLOSED_SHELL('',(#309,#310,#311));
#309=ADVANCED_FACE($,(#315,#314),#332,.T.);
#310=ADVANCED_FACE($,(#316),#312,.F.);
#311=ADVANCED_FACE($,(#317),#313,.T.);
#312=PLANE($,#337);
#313=PLANE($,#338);
#314=FACE_BOUND($,#319,.T.);
#315=FACE_OUTER_BOUND($,#318,.T.);
#316=FACE_OUTER_BOUND($,#320,.T.);
#317=FACE_OUTER_BOUND($,#321,.T.);
#318=EDGE_LOOP($,(#328));
#319=EDGE_LOOP($,(#329));
#320=EDGE_LOOP($,(#330));
#321=EDGE_LOOP($,(#331));
#322=CIRCLE($,#335,0.2794);
#323=CIRCLE($,#336,0.2794);
#324=VERTEX_POINT('',#353);
#325=VERTEX_POINT('',#355);
#326=EDGE_CURVE($,#324,#324,#322,.T.);
#327=EDGE_CURVE($,#325,#325,#323,.T.);
#328=ORIENTED_EDGE($,*,*,#326,.F.);
#329=ORIENTED_EDGE($,*,*,#327,.F.);
#330=ORIENTED_EDGE($,*,*,#327,.T.);
#331=ORIENTED_EDGE($,*,*,#326,.T.);
#332=CYLINDRICAL_SURFACE($,#334,0.2794);
#333=AXIS2_PLACEMENT_3D('placement',#351,#339,#340);
#334=AXIS2_PLACEMENT_3D($,#352,#341,#342);
#335=AXIS2_PLACEMENT_3D($,#354,#343,#344);
#336=AXIS2_PLACEMENT_3D($,#356,#345,#346);
#337=AXIS2_PLACEMENT_3D($,#357,#347,#348);
#338=AXIS2_PLACEMENT_3D($,#358,#349,#350);
#339=DIRECTION('axis',(0.,1.,0.));
#340=DIRECTION('refdir',(1.,0.,0.));
#341=DIRECTION('',(0.,0.,1.));
#342=DIRECTION('',(1.,0.,0.));
#343=DIRECTION('',(0.,0.,1.));
#344=DIRECTION('',(1.,0.,0.));
#345=DIRECTION('',(0.,0.,-1.));
#346=DIRECTION('',(1.,0.,0.));
#347=DIRECTION('',(0.,0.,1.));
#348=DIRECTION('',(0.,1.,0.));
#349=DIRECTION('',(0.,0.,1.));
#350=DIRECTION('',(0.,1.,0.));
#351=CARTESIAN_POINT('',(0.,0.,0.));
#352=CARTESIAN_POINT('',(5.08,0.0,-6.35));
#353=CARTESIAN_POINT('',(4.801,0.0,0.0));
#354=CARTESIAN_POINT('',(5.08,0.0,0.0));
#355=CARTESIAN_POINT('',(4.801,0.0,-6.35));
#356=CARTESIAN_POINT('',(5.08,0.0,-6.35));
#357=CARTESIAN_POINT('',(5.08,0.0,-6.35));
#358=CARTESIAN_POINT('',(5.08,0.0,0.0));
#359=STYLED_ITEM('color',(#34),#309);
#360=STYLED_ITEM('color',(#34),#310);
#361=STYLED_ITEM('color',(#34),#311);
#362=MANIFOLD_SOLID_BREP($,#363);
#363=CLOSED_SHELL('',(#364,#365,#366));
#364=ADVANCED_FACE($,(#370,#369),#387,.T.);
#365=ADVANCED_FACE($,(#371),#367,.F.);
#366=ADVANCED_FACE($,(#372),#368,.T.);
#367=PLANE($,#392);
#368=PLANE($,#393);
#369=FACE_BOUND($,#374,.T.);
#370=FACE_OUTER_BOUND($,#373,.T.);
#371=FACE_OUTER_BOUND($,#375,.T.);
#372=FACE_OUTER_BOUND($,#376,.T.);
#373=EDGE_LOOP($,(#383));
#374=EDGE_LOOP($,(#384));
#375=EDGE_LOOP($,(#385));
#376=EDGE_LOOP($,(#386));
#377=CIRCLE($,#390,1.016);
#378=CIRCLE($,#391,1.016);
#379=VERTEX_POINT('',#408);
#380=VERTEX_POINT('',#410);
#381=EDGE_CURVE($,#379,#379,#377,.T.);
#382=EDGE_CURVE($,#380,#380,#378,.T.);
#383=ORIENTED_EDGE($,*,*,#381,.F.);
#384=ORIENTED_EDGE($,*,*,#382,.F.);
#385=ORIENTED_EDGE($,*,*,#382,.T.);
#386=ORIENTED_EDGE($,*,*,#381,.T.);
#387=CYLINDRICAL_SURFACE($,#389,1.016);
#388=AXIS2_PLACEMENT_3D('placement',#406,#394,#395);
#389=AXIS2_PLACEMENT_3D($,#407,#396,#397);
#390=AXIS2_PLACEMENT_3D($,#409,#398,#399);
#391=AXIS2_PLACEMENT_3D($,#411,#400,#401);
#392=AXIS2_PLACEMENT_3D($,#412,#402,#403);
#393=AXIS2_PLACEMENT_3D($,#413,#404,#405);
#394=DIRECTION('axis',(0.,1.,0.));
#395=DIRECTION('refdir',(1.,0.,0.));
#396=DIRECTION('',(0.,0.,1.));
#397=DIRECTION('',(1.,0.,0.));
#398=DIRECTION('',(0.,0.,1.));
#399=DIRECTION('',(1.,0.,0.));
#400=DIRECTION('',(0.,0.,-1.));
#401=DIRECTION('',(1.,0.,0.));
#402=DIRECTION('',(0.,0.,1.));
#403=DIRECTION('',(0.,1.,0.));
#404=DIRECTION('',(0.,0.,1.));
#405=DIRECTION('',(0.,1.,0.));
#406=CARTESIAN_POINT('',(0.,0.,0.));
#407=CARTESIAN_POINT('',(-0.686,6.147,4.851));
#408=CARTESIAN_POINT('',(-1.702,6.147,4.902));
#409=CARTESIAN_POINT('',(-0.686,6.147,4.902));
#410=CARTESIAN_POINT('',(-1.702,6.147,4.851));
#411=CARTESIAN_POINT('',(-0.686,6.147,4.851));
#412=CARTESIAN_POINT('',(-0.686,6.147,4.851));
#413=CARTESIAN_POINT('',(-0.686,6.147,4.902));
#414=STYLED_ITEM('color',(#70),#364);
#415=STYLED_ITEM('color',(#70),#365);
#416=STYLED_ITEM('color',(#70),#366);
#418=MANIFOLD_SOLID_BREP($,#419);
#419=CLOSED_SHELL('',(#421,#470,#519,#568,#617,#666));
#420=STYLED_ITEM('',(#79),#421);
#421=ADVANCED_FACE('',(#427),#422,.T.);
#422=PLANE('',#423);
#423=AXIS2_PLACEMENT_3D('',#424,#425,#426);
#424=CARTESIAN_POINT('',(-1.956,-2.235,0.0));
#425=DIRECTION('',(0.0,-1.0,0.0));
#426=DIRECTION('',(0.,0.,1.));
#427=FACE_OUTER_BOUND('',#428,.T.);
#428=EDGE_LOOP('',(#429,#439,#449,#459));
#432=CARTESIAN_POINT('',(7.569,-2.235,0.0));
#431=VERTEX_POINT('',#432);
#434=CARTESIAN_POINT('',(-1.956,-2.235,0.0));
#433=VERTEX_POINT('',#434);
#430=EDGE_CURVE('',#431,#433,#435,.T.);
#435=LINE('',#432,#437);
#437=VECTOR('',#438,9.525);
#438=DIRECTION('',(-1.0,0.0,0.0));
#429=ORIENTED_EDGE('',*,*,#430,.F.);
#442=CARTESIAN_POINT('',(7.569,-2.235,4.826));
#441=VERTEX_POINT('',#442);
#440=EDGE_CURVE('',#441,#431,#445,.T.);
#445=LINE('',#442,#447);
#447=VECTOR('',#448,4.826);
#448=DIRECTION('',(0.0,0.0,-1.0));
#439=ORIENTED_EDGE('',*,*,#440,.F.);
#452=CARTESIAN_POINT('',(-1.956,-2.235,4.826));
#451=VERTEX_POINT('',#452);
#450=EDGE_CURVE('',#451,#441,#455,.T.);
#455=LINE('',#452,#457);
#457=VECTOR('',#458,9.525);
#458=DIRECTION('',(1.0,0.0,0.0));
#449=ORIENTED_EDGE('',*,*,#450,.F.);
#460=EDGE_CURVE('',#433,#451,#465,.T.);
#465=LINE('',#434,#467);
#467=VECTOR('',#468,4.826);
#468=DIRECTION('',(0.0,0.0,1.0));
#459=ORIENTED_EDGE('',*,*,#460,.F.);
#469=STYLED_ITEM('',(#79),#470);
#470=ADVANCED_FACE('',(#476),#471,.T.);
#471=PLANE('',#472);
#472=AXIS2_PLACEMENT_3D('',#473,#474,#475);
#473=CARTESIAN_POINT('',(7.569,-2.235,0.0));
#474=DIRECTION('',(1.0,0.0,0.0));
#475=DIRECTION('',(0.,0.,1.));
#476=FACE_OUTER_BOUND('',#477,.T.);
#477=EDGE_LOOP('',(#478,#488,#498,#508));
#481=CARTESIAN_POINT('',(7.569,7.29,0.0));
#480=VERTEX_POINT('',#481);
#479=EDGE_CURVE('',#480,#431,#484,.T.);
#484=LINE('',#481,#486);
#486=VECTOR('',#487,9.525);
#487=DIRECTION('',(0.0,-1.0,0.0));
#478=ORIENTED_EDGE('',*,*,#479,.F.);
#491=CARTESIAN_POINT('',(7.569,7.29,4.826));
#490=VERTEX_POINT('',#491);
#489=EDGE_CURVE('',#490,#480,#494,.T.);
#494=LINE('',#491,#496);
#496=VECTOR('',#497,4.826);
#497=DIRECTION('',(0.0,0.0,-1.0));
#488=ORIENTED_EDGE('',*,*,#489,.F.);
#499=EDGE_CURVE('',#441,#490,#504,.T.);
#504=LINE('',#442,#506);
#506=VECTOR('',#507,9.525);
#507=DIRECTION('',(0.0,1.0,0.0));
#498=ORIENTED_EDGE('',*,*,#499,.F.);
#508=ORIENTED_EDGE('',*,*,#440,.T.);
#518=STYLED_ITEM('',(#79),#519);
#519=ADVANCED_FACE('',(#525),#520,.T.);
#520=PLANE('',#521);
#521=AXIS2_PLACEMENT_3D('',#522,#523,#524);
#522=CARTESIAN_POINT('',(7.569,7.29,0.0));
#523=DIRECTION('',(0.0,1.0,0.0));
#524=DIRECTION('',(0.,0.,1.));
#525=FACE_OUTER_BOUND('',#526,.T.);
#526=EDGE_LOOP('',(#527,#537,#547,#557));
#530=CARTESIAN_POINT('',(-1.956,7.29,0.0));
#529=VERTEX_POINT('',#530);
#528=EDGE_CURVE('',#529,#480,#533,.T.);
#533=LINE('',#530,#535);
#535=VECTOR('',#536,9.525);
#536=DIRECTION('',(1.0,0.0,0.0));
#527=ORIENTED_EDGE('',*,*,#528,.F.);
#540=CARTESIAN_POINT('',(-1.956,7.29,4.826));
#539=VERTEX_POINT('',#540);
#538=EDGE_CURVE('',#539,#529,#543,.T.);
#543=LINE('',#540,#545);
#545=VECTOR('',#546,4.826);
#546=DIRECTION('',(0.0,0.0,-1.0));
#537=ORIENTED_EDGE('',*,*,#538,.F.);
#548=EDGE_CURVE('',#490,#539,#553,.T.);
#553=LINE('',#491,#555);
#555=VECTOR('',#556,9.525);
#556=DIRECTION('',(-1.0,0.0,0.0));
#547=ORIENTED_EDGE('',*,*,#548,.F.);
#557=ORIENTED_EDGE('',*,*,#489,.T.);
#567=STYLED_ITEM('',(#79),#568);
#568=ADVANCED_FACE('',(#574),#569,.T.);
#569=PLANE('',#570);
#570=AXIS2_PLACEMENT_3D('',#571,#572,#573);
#571=CARTESIAN_POINT('',(-1.956,7.29,0.0));
#572=DIRECTION('',(-1.0,0.0,0.0));
#573=DIRECTION('',(0.,0.,1.));
#574=FACE_OUTER_BOUND('',#575,.T.);
#575=EDGE_LOOP('',(#576,#586,#596,#606));
#577=EDGE_CURVE('',#433,#529,#582,.T.);
#582=LINE('',#434,#584);
#584=VECTOR('',#585,9.525);
#585=DIRECTION('',(0.0,1.0,0.0));
#576=ORIENTED_EDGE('',*,*,#577,.F.);
#586=ORIENTED_EDGE('',*,*,#460,.T.);
#597=EDGE_CURVE('',#539,#451,#602,.T.);
#602=LINE('',#540,#604);
#604=VECTOR('',#605,9.525);
#605=DIRECTION('',(0.0,-1.0,0.0));
#596=ORIENTED_EDGE('',*,*,#597,.F.);
#606=ORIENTED_EDGE('',*,*,#538,.T.);
#616=STYLED_ITEM('',(#79),#617);
#617=ADVANCED_FACE('',(#623),#618,.T.);
#618=PLANE('',#619);
#619=AXIS2_PLACEMENT_3D('',#620,#621,#622);
#620=CARTESIAN_POINT('',(-1.956,7.29,0.0));
#621=DIRECTION('',(0.0,0.0,-1.0));
#622=DIRECTION('',(0.,1.,0.));
#623=FACE_OUTER_BOUND('',#624,.T.);
#624=EDGE_LOOP('',(#625,#635,#645,#655));
#625=ORIENTED_EDGE('',*,*,#528,.T.);
#635=ORIENTED_EDGE('',*,*,#479,.T.);
#645=ORIENTED_EDGE('',*,*,#430,.T.);
#655=ORIENTED_EDGE('',*,*,#577,.T.);
#665=STYLED_ITEM('',(#79),#666);
#666=ADVANCED_FACE('',(#672),#667,.T.);
#667=PLANE('',#668);
#668=AXIS2_PLACEMENT_3D('',#669,#670,#671);
#669=CARTESIAN_POINT('',(-1.956,-2.235,4.826));
#670=DIRECTION('',(0.0,0.0,1.0));
#671=DIRECTION('',(0.,1.,0.));
#672=FACE_OUTER_BOUND('',#673,.T.);
#673=EDGE_LOOP('',(#674,#684,#694,#704));
#674=ORIENTED_EDGE('',*,*,#450,.T.);
#684=ORIENTED_EDGE('',*,*,#499,.T.);
#694=ORIENTED_EDGE('',*,*,#548,.T.);
#704=ORIENTED_EDGE('',*,*,#597,.T.);
ENDSEC;
END-ISO-10303-21;
