ISO-10303-21;
HEADER;
/* Generated by software containing ST-Developer
 * from STEP Tools, Inc. (www.steptools.com) 
 */

FILE_DESCRIPTION(
/* description */ (''),
/* implementation_level */ '2;1');

FILE_NAME(
/* name */ 'dfn2_1698843896300.stp',
/* time_stamp */ '2023-11-01T13:05:02Z',
/* author */ (''),
/* organization */ (''),
/* preprocessor_version */ 'ST-DEVELOPER v20',
/* originating_system */ 'ASM',
/* authorisation */ '');

FILE_SCHEMA (('AUTOMOTIVE_DESIGN { 1 0 10303 214 3 1 1 }'));
ENDSEC;

DATA;
#10=MECHANICAL_DESIGN_GEOMETRIC_PRESENTATION_REPRESENTATION('',(#270,#271,
#272,#273,#274,#275,#276,#277,#278,#279,#280),#465);
#11=SHAPE_REPRESENTATION_RELATIONSHIP('SRR','None',#471,#12);
#12=ADVANCED_BREP_SHAPE_REPRESENTATION('',(#13),#464);
#13=MANIFOLD_SOLID_BREP('',#297);
#14=FACE_BOUND('',#48,.T.);
#15=FACE_BOUND('',#49,.T.);
#16=FACE_OUTER_BOUND('',#32,.T.);
#17=FACE_OUTER_BOUND('',#33,.T.);
#18=FACE_OUTER_BOUND('',#34,.T.);
#19=FACE_OUTER_BOUND('',#35,.T.);
#20=FACE_OUTER_BOUND('',#36,.T.);
#21=FACE_OUTER_BOUND('',#37,.T.);
#22=FACE_OUTER_BOUND('',#38,.T.);
#23=FACE_OUTER_BOUND('',#39,.T.);
#24=FACE_OUTER_BOUND('',#40,.T.);
#25=FACE_OUTER_BOUND('',#41,.T.);
#26=FACE_OUTER_BOUND('',#42,.T.);
#27=FACE_OUTER_BOUND('',#43,.T.);
#28=FACE_OUTER_BOUND('',#44,.T.);
#29=FACE_OUTER_BOUND('',#45,.T.);
#30=FACE_OUTER_BOUND('',#46,.T.);
#31=FACE_OUTER_BOUND('',#47,.T.);
#32=EDGE_LOOP('',(#182,#183,#184,#185));
#33=EDGE_LOOP('',(#186,#187,#188,#189));
#34=EDGE_LOOP('',(#190,#191,#192,#193));
#35=EDGE_LOOP('',(#194,#195,#196,#197));
#36=EDGE_LOOP('',(#198,#199,#200,#201));
#37=EDGE_LOOP('',(#202,#203,#204,#205));
#38=EDGE_LOOP('',(#206,#207,#208,#209));
#39=EDGE_LOOP('',(#210,#211,#212,#213));
#40=EDGE_LOOP('',(#214,#215,#216,#217));
#41=EDGE_LOOP('',(#218,#219,#220,#221));
#42=EDGE_LOOP('',(#222,#223,#224,#225));
#43=EDGE_LOOP('',(#226,#227,#228,#229));
#44=EDGE_LOOP('',(#230,#231,#232,#233));
#45=EDGE_LOOP('',(#234,#235,#236,#237));
#46=EDGE_LOOP('',(#238,#239,#240,#241));
#47=EDGE_LOOP('',(#242,#243,#244,#245));
#48=EDGE_LOOP('',(#246,#247,#248,#249));
#49=EDGE_LOOP('',(#250,#251,#252,#253));
#50=LINE('',#389,#86);
#51=LINE('',#391,#87);
#52=LINE('',#393,#88);
#53=LINE('',#394,#89);
#54=LINE('',#397,#90);
#55=LINE('',#399,#91);
#56=LINE('',#400,#92);
#57=LINE('',#403,#93);
#58=LINE('',#405,#94);
#59=LINE('',#406,#95);
#60=LINE('',#408,#96);
#61=LINE('',#409,#97);
#62=LINE('',#414,#98);
#63=LINE('',#416,#99);
#64=LINE('',#418,#100);
#65=LINE('',#419,#101);
#66=LINE('',#422,#102);
#67=LINE('',#424,#103);
#68=LINE('',#425,#104);
#69=LINE('',#428,#105);
#70=LINE('',#430,#106);
#71=LINE('',#431,#107);
#72=LINE('',#433,#108);
#73=LINE('',#434,#109);
#74=LINE('',#439,#110);
#75=LINE('',#441,#111);
#76=LINE('',#443,#112);
#77=LINE('',#444,#113);
#78=LINE('',#447,#114);
#79=LINE('',#449,#115);
#80=LINE('',#450,#116);
#81=LINE('',#453,#117);
#82=LINE('',#455,#118);
#83=LINE('',#456,#119);
#84=LINE('',#458,#120);
#85=LINE('',#459,#121);
#86=VECTOR('',#319,1.);
#87=VECTOR('',#320,1.);
#88=VECTOR('',#321,1.4);
#89=VECTOR('',#322,1.);
#90=VECTOR('',#325,1.);
#91=VECTOR('',#326,5.);
#92=VECTOR('',#327,1.);
#93=VECTOR('',#330,1.);
#94=VECTOR('',#331,1.4);
#95=VECTOR('',#332,1.);
#96=VECTOR('',#335,1.);
#97=VECTOR('',#336,5.);
#98=VECTOR('',#341,1.);
#99=VECTOR('',#342,1.);
#100=VECTOR('',#343,1.4);
#101=VECTOR('',#344,1.);
#102=VECTOR('',#347,1.);
#103=VECTOR('',#348,5.);
#104=VECTOR('',#349,1.);
#105=VECTOR('',#352,1.);
#106=VECTOR('',#353,1.4);
#107=VECTOR('',#354,1.);
#108=VECTOR('',#357,1.);
#109=VECTOR('',#358,5.);
#110=VECTOR('',#363,6.4);
#111=VECTOR('',#364,1.);
#112=VECTOR('',#365,6.4);
#113=VECTOR('',#366,1.);
#114=VECTOR('',#369,6.6);
#115=VECTOR('',#370,6.6);
#116=VECTOR('',#371,1.);
#117=VECTOR('',#374,6.4);
#118=VECTOR('',#375,6.4);
#119=VECTOR('',#376,1.);
#120=VECTOR('',#379,6.6);
#121=VECTOR('',#380,6.6);
#122=VERTEX_POINT('',#387);
#123=VERTEX_POINT('',#388);
#124=VERTEX_POINT('',#390);
#125=VERTEX_POINT('',#392);
#126=VERTEX_POINT('',#396);
#127=VERTEX_POINT('',#398);
#128=VERTEX_POINT('',#402);
#129=VERTEX_POINT('',#404);
#130=VERTEX_POINT('',#412);
#131=VERTEX_POINT('',#413);
#132=VERTEX_POINT('',#415);
#133=VERTEX_POINT('',#417);
#134=VERTEX_POINT('',#421);
#135=VERTEX_POINT('',#423);
#136=VERTEX_POINT('',#427);
#137=VERTEX_POINT('',#429);
#138=VERTEX_POINT('',#437);
#139=VERTEX_POINT('',#438);
#140=VERTEX_POINT('',#440);
#141=VERTEX_POINT('',#442);
#142=VERTEX_POINT('',#446);
#143=VERTEX_POINT('',#448);
#144=VERTEX_POINT('',#452);
#145=VERTEX_POINT('',#454);
#146=EDGE_CURVE('',#122,#123,#50,.T.);
#147=EDGE_CURVE('',#122,#124,#51,.T.);
#148=EDGE_CURVE('',#125,#124,#52,.T.);
#149=EDGE_CURVE('',#123,#125,#53,.T.);
#150=EDGE_CURVE('',#123,#126,#54,.T.);
#151=EDGE_CURVE('',#127,#125,#55,.T.);
#152=EDGE_CURVE('',#126,#127,#56,.T.);
#153=EDGE_CURVE('',#126,#128,#57,.T.);
#154=EDGE_CURVE('',#129,#127,#58,.T.);
#155=EDGE_CURVE('',#128,#129,#59,.T.);
#156=EDGE_CURVE('',#128,#122,#60,.T.);
#157=EDGE_CURVE('',#124,#129,#61,.T.);
#158=EDGE_CURVE('',#130,#131,#62,.T.);
#159=EDGE_CURVE('',#130,#132,#63,.T.);
#160=EDGE_CURVE('',#133,#132,#64,.T.);
#161=EDGE_CURVE('',#131,#133,#65,.T.);
#162=EDGE_CURVE('',#131,#134,#66,.T.);
#163=EDGE_CURVE('',#135,#133,#67,.T.);
#164=EDGE_CURVE('',#134,#135,#68,.T.);
#165=EDGE_CURVE('',#134,#136,#69,.T.);
#166=EDGE_CURVE('',#137,#135,#70,.T.);
#167=EDGE_CURVE('',#136,#137,#71,.T.);
#168=EDGE_CURVE('',#136,#130,#72,.T.);
#169=EDGE_CURVE('',#132,#137,#73,.T.);
#170=EDGE_CURVE('',#138,#139,#74,.T.);
#171=EDGE_CURVE('',#139,#140,#75,.T.);
#172=EDGE_CURVE('',#141,#140,#76,.T.);
#173=EDGE_CURVE('',#138,#141,#77,.T.);
#174=EDGE_CURVE('',#142,#138,#78,.T.);
#175=EDGE_CURVE('',#143,#141,#79,.T.);
#176=EDGE_CURVE('',#142,#143,#80,.T.);
#177=EDGE_CURVE('',#144,#142,#81,.T.);
#178=EDGE_CURVE('',#145,#143,#82,.T.);
#179=EDGE_CURVE('',#144,#145,#83,.T.);
#180=EDGE_CURVE('',#139,#144,#84,.T.);
#181=EDGE_CURVE('',#140,#145,#85,.T.);
#182=ORIENTED_EDGE('',*,*,#146,.F.);
#183=ORIENTED_EDGE('',*,*,#147,.T.);
#184=ORIENTED_EDGE('',*,*,#148,.F.);
#185=ORIENTED_EDGE('',*,*,#149,.F.);
#186=ORIENTED_EDGE('',*,*,#150,.F.);
#187=ORIENTED_EDGE('',*,*,#149,.T.);
#188=ORIENTED_EDGE('',*,*,#151,.F.);
#189=ORIENTED_EDGE('',*,*,#152,.F.);
#190=ORIENTED_EDGE('',*,*,#153,.F.);
#191=ORIENTED_EDGE('',*,*,#152,.T.);
#192=ORIENTED_EDGE('',*,*,#154,.F.);
#193=ORIENTED_EDGE('',*,*,#155,.F.);
#194=ORIENTED_EDGE('',*,*,#156,.F.);
#195=ORIENTED_EDGE('',*,*,#155,.T.);
#196=ORIENTED_EDGE('',*,*,#157,.F.);
#197=ORIENTED_EDGE('',*,*,#147,.F.);
#198=ORIENTED_EDGE('',*,*,#157,.T.);
#199=ORIENTED_EDGE('',*,*,#154,.T.);
#200=ORIENTED_EDGE('',*,*,#151,.T.);
#201=ORIENTED_EDGE('',*,*,#148,.T.);
#202=ORIENTED_EDGE('',*,*,#158,.F.);
#203=ORIENTED_EDGE('',*,*,#159,.T.);
#204=ORIENTED_EDGE('',*,*,#160,.F.);
#205=ORIENTED_EDGE('',*,*,#161,.F.);
#206=ORIENTED_EDGE('',*,*,#162,.F.);
#207=ORIENTED_EDGE('',*,*,#161,.T.);
#208=ORIENTED_EDGE('',*,*,#163,.F.);
#209=ORIENTED_EDGE('',*,*,#164,.F.);
#210=ORIENTED_EDGE('',*,*,#165,.F.);
#211=ORIENTED_EDGE('',*,*,#164,.T.);
#212=ORIENTED_EDGE('',*,*,#166,.F.);
#213=ORIENTED_EDGE('',*,*,#167,.F.);
#214=ORIENTED_EDGE('',*,*,#168,.F.);
#215=ORIENTED_EDGE('',*,*,#167,.T.);
#216=ORIENTED_EDGE('',*,*,#169,.F.);
#217=ORIENTED_EDGE('',*,*,#159,.F.);
#218=ORIENTED_EDGE('',*,*,#169,.T.);
#219=ORIENTED_EDGE('',*,*,#166,.T.);
#220=ORIENTED_EDGE('',*,*,#163,.T.);
#221=ORIENTED_EDGE('',*,*,#160,.T.);
#222=ORIENTED_EDGE('',*,*,#170,.T.);
#223=ORIENTED_EDGE('',*,*,#171,.T.);
#224=ORIENTED_EDGE('',*,*,#172,.F.);
#225=ORIENTED_EDGE('',*,*,#173,.F.);
#226=ORIENTED_EDGE('',*,*,#174,.T.);
#227=ORIENTED_EDGE('',*,*,#173,.T.);
#228=ORIENTED_EDGE('',*,*,#175,.F.);
#229=ORIENTED_EDGE('',*,*,#176,.F.);
#230=ORIENTED_EDGE('',*,*,#177,.T.);
#231=ORIENTED_EDGE('',*,*,#176,.T.);
#232=ORIENTED_EDGE('',*,*,#178,.F.);
#233=ORIENTED_EDGE('',*,*,#179,.F.);
#234=ORIENTED_EDGE('',*,*,#180,.T.);
#235=ORIENTED_EDGE('',*,*,#179,.T.);
#236=ORIENTED_EDGE('',*,*,#181,.F.);
#237=ORIENTED_EDGE('',*,*,#171,.F.);
#238=ORIENTED_EDGE('',*,*,#180,.F.);
#239=ORIENTED_EDGE('',*,*,#170,.F.);
#240=ORIENTED_EDGE('',*,*,#174,.F.);
#241=ORIENTED_EDGE('',*,*,#177,.F.);
#242=ORIENTED_EDGE('',*,*,#181,.T.);
#243=ORIENTED_EDGE('',*,*,#178,.T.);
#244=ORIENTED_EDGE('',*,*,#175,.T.);
#245=ORIENTED_EDGE('',*,*,#172,.T.);
#246=ORIENTED_EDGE('',*,*,#146,.T.);
#247=ORIENTED_EDGE('',*,*,#150,.T.);
#248=ORIENTED_EDGE('',*,*,#153,.T.);
#249=ORIENTED_EDGE('',*,*,#156,.T.);
#250=ORIENTED_EDGE('',*,*,#158,.T.);
#251=ORIENTED_EDGE('',*,*,#162,.T.);
#252=ORIENTED_EDGE('',*,*,#165,.T.);
#253=ORIENTED_EDGE('',*,*,#168,.T.);
#254=PLANE('',#299);
#255=PLANE('',#300);
#256=PLANE('',#301);
#257=PLANE('',#302);
#258=PLANE('',#303);
#259=PLANE('',#304);
#260=PLANE('',#305);
#261=PLANE('',#306);
#262=PLANE('',#307);
#263=PLANE('',#308);
#264=PLANE('',#309);
#265=PLANE('',#310);
#266=PLANE('',#311);
#267=PLANE('',#312);
#268=PLANE('',#313);
#269=PLANE('',#314);
#270=STYLED_ITEM('',(#481),#281);
#271=STYLED_ITEM('',(#481),#282);
#272=STYLED_ITEM('',(#481),#283);
#273=STYLED_ITEM('',(#481),#284);
#274=STYLED_ITEM('',(#481),#285);
#275=STYLED_ITEM('',(#481),#286);
#276=STYLED_ITEM('',(#481),#287);
#277=STYLED_ITEM('',(#481),#288);
#278=STYLED_ITEM('',(#481),#289);
#279=STYLED_ITEM('',(#481),#290);
#280=STYLED_ITEM('',(#480),#13);
#281=ADVANCED_FACE('',(#16),#254,.T.);
#282=ADVANCED_FACE('',(#17),#255,.T.);
#283=ADVANCED_FACE('',(#18),#256,.T.);
#284=ADVANCED_FACE('',(#19),#257,.T.);
#285=ADVANCED_FACE('',(#20),#258,.T.);
#286=ADVANCED_FACE('',(#21),#259,.T.);
#287=ADVANCED_FACE('',(#22),#260,.T.);
#288=ADVANCED_FACE('',(#23),#261,.T.);
#289=ADVANCED_FACE('',(#24),#262,.T.);
#290=ADVANCED_FACE('',(#25),#263,.T.);
#291=ADVANCED_FACE('',(#26),#264,.T.);
#292=ADVANCED_FACE('',(#27),#265,.T.);
#293=ADVANCED_FACE('',(#28),#266,.T.);
#294=ADVANCED_FACE('',(#29),#267,.T.);
#295=ADVANCED_FACE('',(#30),#268,.T.);
#296=ADVANCED_FACE('',(#31,#14,#15),#269,.T.);
#297=CLOSED_SHELL('',(#281,#282,#283,#284,#285,#286,#287,#288,#289,#290,
#291,#292,#293,#294,#295,#296));
#298=AXIS2_PLACEMENT_3D('',#385,#315,#316);
#299=AXIS2_PLACEMENT_3D('',#386,#317,#318);
#300=AXIS2_PLACEMENT_3D('',#395,#323,#324);
#301=AXIS2_PLACEMENT_3D('',#401,#328,#329);
#302=AXIS2_PLACEMENT_3D('',#407,#333,#334);
#303=AXIS2_PLACEMENT_3D('',#410,#337,#338);
#304=AXIS2_PLACEMENT_3D('',#411,#339,#340);
#305=AXIS2_PLACEMENT_3D('',#420,#345,#346);
#306=AXIS2_PLACEMENT_3D('',#426,#350,#351);
#307=AXIS2_PLACEMENT_3D('',#432,#355,#356);
#308=AXIS2_PLACEMENT_3D('',#435,#359,#360);
#309=AXIS2_PLACEMENT_3D('',#436,#361,#362);
#310=AXIS2_PLACEMENT_3D('',#445,#367,#368);
#311=AXIS2_PLACEMENT_3D('',#451,#372,#373);
#312=AXIS2_PLACEMENT_3D('',#457,#377,#378);
#313=AXIS2_PLACEMENT_3D('',#460,#381,#382);
#314=AXIS2_PLACEMENT_3D('',#461,#383,#384);
#315=DIRECTION('axis',(0.,0.,1.));
#316=DIRECTION('refdir',(1.,0.,0.));
#317=DIRECTION('center_axis',(1.22464679914735E-16,1.,1.22464679914735E-16));
#318=DIRECTION('ref_axis',(1.,-1.22464679914735E-16,-1.49975978266186E-32));
#319=DIRECTION('',(-1.,1.22464679914735E-16,1.49975978266186E-32));
#320=DIRECTION('',(0.,1.22464679914735E-16,-1.));
#321=DIRECTION('',(1.,-1.22464679914735E-16,-1.49975978266186E-32));
#322=DIRECTION('',(0.,1.22464679914735E-16,-1.));
#323=DIRECTION('center_axis',(-1.,1.22464679914735E-16,1.49975978266186E-32));
#324=DIRECTION('ref_axis',(1.22464679914735E-16,1.,1.22464679914735E-16));
#325=DIRECTION('',(-1.22464679914735E-16,-1.,-1.22464679914735E-16));
#326=DIRECTION('',(1.22464679914735E-16,1.,1.22464679914735E-16));
#327=DIRECTION('',(0.,1.22464679914735E-16,-1.));
#328=DIRECTION('center_axis',(-1.22464679914735E-16,-1.,-1.22464679914735E-16));
#329=DIRECTION('ref_axis',(-1.,1.22464679914735E-16,1.49975978266186E-32));
#330=DIRECTION('',(1.,-1.22464679914735E-16,-1.49975978266186E-32));
#331=DIRECTION('',(-1.,1.22464679914735E-16,1.49975978266186E-32));
#332=DIRECTION('',(0.,1.22464679914735E-16,-1.));
#333=DIRECTION('center_axis',(1.,-1.22464679914735E-16,-1.49975978266186E-32));
#334=DIRECTION('ref_axis',(-1.22464679914735E-16,-1.,-1.22464679914735E-16));
#335=DIRECTION('',(1.22464679914735E-16,1.,1.22464679914735E-16));
#336=DIRECTION('',(-1.22464679914735E-16,-1.,-1.22464679914735E-16));
#337=DIRECTION('center_axis',(0.,1.22464679914735E-16,-1.));
#338=DIRECTION('ref_axis',(-1.,1.22464679914735E-16,1.49975978266186E-32));
#339=DIRECTION('center_axis',(1.22464679914735E-16,1.,1.22464679914735E-16));
#340=DIRECTION('ref_axis',(1.,-1.22464679914735E-16,-1.49975978266186E-32));
#341=DIRECTION('',(-1.,1.22464679914735E-16,1.49975978266186E-32));
#342=DIRECTION('',(0.,1.22464679914735E-16,-1.));
#343=DIRECTION('',(1.,-1.22464679914735E-16,-1.49975978266186E-32));
#344=DIRECTION('',(0.,1.22464679914735E-16,-1.));
#345=DIRECTION('center_axis',(-1.,1.22464679914735E-16,1.49975978266186E-32));
#346=DIRECTION('ref_axis',(1.22464679914735E-16,1.,1.22464679914735E-16));
#347=DIRECTION('',(-1.22464679914735E-16,-1.,-1.22464679914735E-16));
#348=DIRECTION('',(1.22464679914735E-16,1.,1.22464679914735E-16));
#349=DIRECTION('',(0.,1.22464679914735E-16,-1.));
#350=DIRECTION('center_axis',(-1.22464679914735E-16,-1.,-1.22464679914735E-16));
#351=DIRECTION('ref_axis',(-1.,1.22464679914735E-16,1.49975978266186E-32));
#352=DIRECTION('',(1.,-1.22464679914735E-16,-1.49975978266186E-32));
#353=DIRECTION('',(-1.,1.22464679914735E-16,1.49975978266186E-32));
#354=DIRECTION('',(0.,1.22464679914735E-16,-1.));
#355=DIRECTION('center_axis',(1.,-1.22464679914735E-16,-1.49975978266186E-32));
#356=DIRECTION('ref_axis',(-1.22464679914735E-16,-1.,-1.22464679914735E-16));
#357=DIRECTION('',(1.22464679914735E-16,1.,1.22464679914735E-16));
#358=DIRECTION('',(-1.22464679914735E-16,-1.,-1.22464679914735E-16));
#359=DIRECTION('center_axis',(0.,1.22464679914735E-16,-1.));
#360=DIRECTION('ref_axis',(-1.,1.22464679914735E-16,1.49975978266186E-32));
#361=DIRECTION('center_axis',(1.22464679914735E-16,1.,1.22464679914735E-16));
#362=DIRECTION('ref_axis',(1.,-1.22464679914735E-16,-1.49975978266186E-32));
#363=DIRECTION('',(1.,-1.22464679914735E-16,-1.49975978266186E-32));
#364=DIRECTION('',(0.,1.22464679914735E-16,-1.));
#365=DIRECTION('',(1.,-1.22464679914735E-16,-1.49975978266186E-32));
#366=DIRECTION('',(0.,1.22464679914735E-16,-1.));
#367=DIRECTION('center_axis',(-1.,1.22464679914735E-16,1.49975978266186E-32));
#368=DIRECTION('ref_axis',(1.22464679914735E-16,1.,1.22464679914735E-16));
#369=DIRECTION('',(1.22464679914735E-16,1.,1.22464679914735E-16));
#370=DIRECTION('',(1.22464679914735E-16,1.,1.22464679914735E-16));
#371=DIRECTION('',(0.,1.22464679914735E-16,-1.));
#372=DIRECTION('center_axis',(-1.22464679914735E-16,-1.,-1.22464679914735E-16));
#373=DIRECTION('ref_axis',(-1.,1.22464679914735E-16,1.49975978266186E-32));
#374=DIRECTION('',(-1.,1.22464679914735E-16,1.49975978266186E-32));
#375=DIRECTION('',(-1.,1.22464679914735E-16,1.49975978266186E-32));
#376=DIRECTION('',(0.,1.22464679914735E-16,-1.));
#377=DIRECTION('center_axis',(1.,-1.22464679914735E-16,-1.49975978266186E-32));
#378=DIRECTION('ref_axis',(-1.22464679914735E-16,-1.,-1.22464679914735E-16));
#379=DIRECTION('',(-1.22464679914735E-16,-1.,-1.22464679914735E-16));
#380=DIRECTION('',(-1.22464679914735E-16,-1.,-1.22464679914735E-16));
#381=DIRECTION('center_axis',(0.,-1.22464679914735E-16,1.));
#382=DIRECTION('ref_axis',(1.,-1.22464679914735E-16,-1.49975978266186E-32));
#383=DIRECTION('center_axis',(0.,1.22464679914735E-16,-1.));
#384=DIRECTION('ref_axis',(-1.,1.22464679914735E-16,1.49975978266186E-32));
#385=CARTESIAN_POINT('',(0.,0.,0.));
#386=CARTESIAN_POINT('Origin',(-2.7,2.5,0.0500000000000007));
#387=CARTESIAN_POINT('',(-1.3,2.5,0.0500000000000007));
#388=CARTESIAN_POINT('',(-2.7,2.5,0.0500000000000007));
#389=CARTESIAN_POINT('',(0.250000000000002,2.5,0.0500000000000007));
#390=CARTESIAN_POINT('',(-1.3,2.5,8.88178419700125E-16));
#391=CARTESIAN_POINT('',(-1.3,2.5,0.0500000000000007));
#392=CARTESIAN_POINT('',(-2.7,2.5,8.88178419700125E-16));
#393=CARTESIAN_POINT('',(-2.7,2.5,8.88178419700125E-16));
#394=CARTESIAN_POINT('',(-2.7,2.5,0.0500000000000007));
#395=CARTESIAN_POINT('Origin',(-2.7,-2.5,0.0499999999999998));
#396=CARTESIAN_POINT('',(-2.7,-2.5,0.0499999999999998));
#397=CARTESIAN_POINT('',(-2.7,-2.9,0.0499999999999998));
#398=CARTESIAN_POINT('',(-2.7,-2.5,0.));
#399=CARTESIAN_POINT('',(-2.7,-2.5,0.));
#400=CARTESIAN_POINT('',(-2.7,-2.5,0.0499999999999998));
#401=CARTESIAN_POINT('Origin',(-1.3,-2.5,0.0499999999999998));
#402=CARTESIAN_POINT('',(-1.3,-2.5,0.0499999999999998));
#403=CARTESIAN_POINT('',(0.95,-2.5,0.0499999999999998));
#404=CARTESIAN_POINT('',(-1.3,-2.5,0.));
#405=CARTESIAN_POINT('',(-1.3,-2.5,0.));
#406=CARTESIAN_POINT('',(-1.3,-2.5,0.0499999999999998));
#407=CARTESIAN_POINT('Origin',(-1.3,2.5,0.0500000000000007));
#408=CARTESIAN_POINT('',(-1.3,-0.399999999999999,0.0500000000000003));
#409=CARTESIAN_POINT('',(-1.3,2.5,8.88178419700125E-16));
#410=CARTESIAN_POINT('Origin',(-1.3,-2.5,0.));
#411=CARTESIAN_POINT('Origin',(1.3,2.5,0.0500000000000007));
#412=CARTESIAN_POINT('',(2.7,2.5,0.0500000000000007));
#413=CARTESIAN_POINT('',(1.3,2.5,0.0500000000000007));
#414=CARTESIAN_POINT('',(2.25,2.5,0.0500000000000007));
#415=CARTESIAN_POINT('',(2.7,2.5,8.88178419700125E-16));
#416=CARTESIAN_POINT('',(2.7,2.5,0.0500000000000007));
#417=CARTESIAN_POINT('',(1.3,2.5,8.88178419700125E-16));
#418=CARTESIAN_POINT('',(1.3,2.5,8.88178419700125E-16));
#419=CARTESIAN_POINT('',(1.3,2.5,0.0500000000000007));
#420=CARTESIAN_POINT('Origin',(1.3,-2.5,0.0499999999999998));
#421=CARTESIAN_POINT('',(1.3,-2.5,0.0499999999999998));
#422=CARTESIAN_POINT('',(1.3,-2.9,0.0499999999999998));
#423=CARTESIAN_POINT('',(1.3,-2.5,0.));
#424=CARTESIAN_POINT('',(1.3,-2.5,0.));
#425=CARTESIAN_POINT('',(1.3,-2.5,0.0499999999999998));
#426=CARTESIAN_POINT('Origin',(2.7,-2.5,0.0499999999999998));
#427=CARTESIAN_POINT('',(2.7,-2.5,0.0499999999999998));
#428=CARTESIAN_POINT('',(2.95,-2.5,0.0499999999999998));
#429=CARTESIAN_POINT('',(2.7,-2.5,0.));
#430=CARTESIAN_POINT('',(2.7,-2.5,0.));
#431=CARTESIAN_POINT('',(2.7,-2.5,0.0499999999999998));
#432=CARTESIAN_POINT('Origin',(2.7,2.5,0.0500000000000007));
#433=CARTESIAN_POINT('',(2.7,-0.4,0.0500000000000003));
#434=CARTESIAN_POINT('',(2.7,2.5,8.88178419700125E-16));
#435=CARTESIAN_POINT('Origin',(2.7,-2.5,0.));
#436=CARTESIAN_POINT('Origin',(-3.2,3.3,2.8));
#437=CARTESIAN_POINT('',(-3.2,3.3,2.8));
#438=CARTESIAN_POINT('',(3.2,3.3,2.8));
#439=CARTESIAN_POINT('',(-3.2,3.3,2.8));
#440=CARTESIAN_POINT('',(3.2,3.3,0.0500000000000007));
#441=CARTESIAN_POINT('',(3.2,3.3,2.8));
#442=CARTESIAN_POINT('',(-3.2,3.3,0.0500000000000007));
#443=CARTESIAN_POINT('',(-3.2,3.3,0.0500000000000007));
#444=CARTESIAN_POINT('',(-3.2,3.3,2.8));
#445=CARTESIAN_POINT('Origin',(-3.2,-3.3,2.8));
#446=CARTESIAN_POINT('',(-3.2,-3.3,2.8));
#447=CARTESIAN_POINT('',(-3.2,-3.3,2.8));
#448=CARTESIAN_POINT('',(-3.2,-3.3,0.0499999999999998));
#449=CARTESIAN_POINT('',(-3.2,-3.3,0.0499999999999998));
#450=CARTESIAN_POINT('',(-3.2,-3.3,2.8));
#451=CARTESIAN_POINT('Origin',(3.2,-3.3,2.8));
#452=CARTESIAN_POINT('',(3.2,-3.3,2.8));
#453=CARTESIAN_POINT('',(3.2,-3.3,2.8));
#454=CARTESIAN_POINT('',(3.2,-3.3,0.0499999999999998));
#455=CARTESIAN_POINT('',(3.2,-3.3,0.0499999999999998));
#456=CARTESIAN_POINT('',(3.2,-3.3,2.8));
#457=CARTESIAN_POINT('Origin',(3.2,3.3,2.8));
#458=CARTESIAN_POINT('',(3.2,3.3,2.8));
#459=CARTESIAN_POINT('',(3.2,3.3,0.0500000000000007));
#460=CARTESIAN_POINT('Origin',(3.2,-3.3,2.8));
#461=CARTESIAN_POINT('Origin',(3.2,-3.3,0.0499999999999998));
#462=UNCERTAINTY_MEASURE_WITH_UNIT(LENGTH_MEASURE(0.01),#466,
'DISTANCE_ACCURACY_VALUE',
'Maximum model space distance between geometric entities at asserted c
onnectivities');
#463=UNCERTAINTY_MEASURE_WITH_UNIT(LENGTH_MEASURE(0.01),#466,
'DISTANCE_ACCURACY_VALUE',
'Maximum model space distance between geometric entities at asserted c
onnectivities');
#464=(
GEOMETRIC_REPRESENTATION_CONTEXT(3)
GLOBAL_UNCERTAINTY_ASSIGNED_CONTEXT((#462))
GLOBAL_UNIT_ASSIGNED_CONTEXT((#466,#467,#468))
REPRESENTATION_CONTEXT('','3D')
);
#465=(
GEOMETRIC_REPRESENTATION_CONTEXT(3)
GLOBAL_UNCERTAINTY_ASSIGNED_CONTEXT((#463))
GLOBAL_UNIT_ASSIGNED_CONTEXT((#466,#467,#468))
REPRESENTATION_CONTEXT('','3D')
);
#466=(
LENGTH_UNIT()
NAMED_UNIT(*)
SI_UNIT(.MILLI.,.METRE.)
);
#467=(
NAMED_UNIT(*)
PLANE_ANGLE_UNIT()
SI_UNIT($,.RADIAN.)
);
#468=(
NAMED_UNIT(*)
SI_UNIT($,.STERADIAN.)
SOLID_ANGLE_UNIT()
);
#469=SHAPE_DEFINITION_REPRESENTATION(#470,#471);
#470=PRODUCT_DEFINITION_SHAPE('',$,#473);
#471=SHAPE_REPRESENTATION('',(#298),#464);
#472=PRODUCT_DEFINITION_CONTEXT('part definition',#477,'design');
#473=PRODUCT_DEFINITION('dfn2_1698843896300','dfn2_1698843896300',#474,
#472);
#474=PRODUCT_DEFINITION_FORMATION('',$,#479);
#475=PRODUCT_RELATED_PRODUCT_CATEGORY('dfn2_1698843896300',
'dfn2_1698843896300',(#479));
#476=APPLICATION_PROTOCOL_DEFINITION('international standard',
'automotive_design',2009,#477);
#477=APPLICATION_CONTEXT(
'Core Data for Automotive Mechanical Design Process');
#478=PRODUCT_CONTEXT('part definition',#477,'mechanical');
#479=PRODUCT('dfn2_1698843896300','dfn2_1698843896300',$,(#478));
#480=PRESENTATION_STYLE_ASSIGNMENT((#482));
#481=PRESENTATION_STYLE_ASSIGNMENT((#483));
#482=SURFACE_STYLE_USAGE(.BOTH.,#488);
#483=SURFACE_STYLE_USAGE(.BOTH.,#489);
#484=SURFACE_STYLE_RENDERING_WITH_PROPERTIES($,#496,(#486));
#485=SURFACE_STYLE_RENDERING_WITH_PROPERTIES($,#497,(#487));
#486=SURFACE_STYLE_TRANSPARENT(0.);
#487=SURFACE_STYLE_TRANSPARENT(0.);
#488=SURFACE_SIDE_STYLE('',(#490,#484));
#489=SURFACE_SIDE_STYLE('',(#491,#485));
#490=SURFACE_STYLE_FILL_AREA(#492);
#491=SURFACE_STYLE_FILL_AREA(#493);
#492=FILL_AREA_STYLE('',(#494));
#493=FILL_AREA_STYLE('',(#495));
#494=FILL_AREA_STYLE_COLOUR('',#496);
#495=FILL_AREA_STYLE_COLOUR('',#497);
#496=COLOUR_RGB('',0.0392156862745098,0.0392156862745098,0.0392156862745098);
#497=COLOUR_RGB('',0.749019607843137,0.749019607843137,0.749019607843137);
ENDSEC;
END-ISO-10303-21;
