0
SECTION
2
HEADER
9
$INSUNITS
70
4
9
$ACADVER
1
AC1014
9
$HANDSEED
5
FFFF
0
ENDSEC
0
SECTION
2
TABLES
0
TABLE
2
VPORT
5
8
100
AcDbSymbolTable
0
ENDTAB
0
TABLE
2
LTYPE
5
5
100
AcDbSymbolTable
0
LTYPE
5
14
100
AcDbSymbolTableRecord
100
AcDbLinetypeTableRecord
2
BYBLOCK
70
0
0
LTYPE
5
15
100
AcDbSymbolTableRecord
100
AcDbLinetypeTableRecord
2
BYLAYER
70
0
0
ENDTAB
0
TABLE
2
LAYER
5
2
100
AcDbSymbolTable
70
2
0
LAYER
5
50
100
AcDbSymbolTableRecord
100
AcDbLayerTableRecord
2
0
70
0
6
CONTINUOUS
0
ENDTAB
0
TABLE
2
STYLE
5
3
100
AcDbSymbolTable
70
1
0
STYLE
5
11
100
AcDbSymbolTableRecord
100
AcDbTextStyleTableRecord
2
STANDARD
70
0
0
ENDTAB
0
TABLE
2
VIEW
5
6
100
AcDbSymbolTable
70
0
0
ENDTAB
0
TABLE
2
UCS
5
7
100
AcDbSymbolTable
70
0
0
ENDTAB
0
TABLE
2
APPID
5
9
100
AcDbSymbolTable
70
2
0
APPID
5
12
100
AcDbSymbolTableRecord
100
AcDbRegAppTableRecord
2
ACAD
70
0
0
ENDTAB
0
TABLE
2
DIMSTYLE
5
A
100
AcDbSymbolTable
70
1
0
ENDTAB
0
TABLE
2
BLOCK_RECORD
5
1
100
AcDbSymbolTable
70
1
0
BLOCK_RECORD
5
1F
100
AcDbSymbolTableRecord
100
AcDbBlockTableRecord
2
*MODEL_SPACE
0
BLOCK_RECORD
5
1B
100
AcDbSymbolTableRecord
100
AcDbBlockTableRecord
2
*PAPER_SPACE
0
ENDTAB
0
ENDSEC
0
SECTION
2
BLOCKS
0
BLOCK
5
20
100
AcDbEntity
100
AcDbBlockBegin
2
*MODEL_SPACE
0
ENDBLK
5
21
100
AcDbEntity
100
AcDbBlockEnd
0
BLOCK
5
1C
100
AcDbEntity
100
AcDbBlockBegin
2
*PAPER_SPACE
0
ENDBLK
5
1D
100
AcDbEntity
100
AcDbBlockEnd
0
ENDSEC
0
SECTION
2
ENTITIES
0
LINE
5
100
100
AcDbEntity
8
0
100
AcDbLine
10
7.0000000000000009
20
-11
30
0
11
-7.0000000000000009
21
-11
31
0
0
LINE
5
101
100
AcDbEntity
8
0
100
AcDbLine
10
-7.0000000000000009
20
11
30
0
11
7.0000000000000009
21
11
31
0
0
LINE
5
102
100
AcDbEntity
8
0
100
AcDbLine
10
7.0000000000000009
20
11
30
0
11
7.0000000000000009
21
-11
31
0
0
ARC
5
103
100
AcDbEntity
8
0
100
AcDbCircle
10
12.75
20
12.75
30
0
40
1.0000000000000009
210
0
220
0
230
1
100
AcDbArc
50
0
51
90
0
LINE
5
104
100
AcDbEntity
8
0
100
AcDbLine
10
12.75
20
13.75
30
0
11
12.75
21
13.25
31
0
0
LINE
5
105
100
AcDbEntity
8
0
100
AcDbLine
10
13.75
20
12.75
30
0
11
13.25
21
12.75
31
0
0
LINE
5
106
100
AcDbEntity
8
0
100
AcDbLine
10
12.75
20
13.25
30
0
11
13.25
21
13.25
31
0
0
LINE
5
107
100
AcDbEntity
8
0
100
AcDbLine
10
13.25
20
13.25
30
0
11
13.25
21
12.75
31
0
0
LINE
5
108
100
AcDbEntity
8
0
100
AcDbLine
10
22.000000327825546
20
-2.2204460492503131e-15
30
0
11
-25.00000037252903
21
-2.2204460492503131e-15
31
0
0
LINE
5
109
100
AcDbEntity
8
0
100
AcDbLine
10
0
20
-18.000000268220901
30
0
11
0
21
18.000000268220901
31
0
0
ARC
5
110
100
AcDbEntity
8
0
100
AcDbCircle
10
-12.75
20
12.75
30
0
40
1.0000000000000009
210
0
220
-0
230
1
100
AcDbArc
50
90
51
180
0
LINE
5
111
100
AcDbEntity
8
0
100
AcDbLine
10
-13.25
20
13.250000000000002
30
0
11
-13.25
21
12.75
31
0
0
LINE
5
112
100
AcDbEntity
8
0
100
AcDbLine
10
-13.75
20
12.75
30
0
11
-13.25
21
12.75
31
0
0
LINE
5
113
100
AcDbEntity
8
0
100
AcDbLine
10
-12.75
20
13.75
30
0
11
-12.75
21
13.250000000000002
31
0
0
LINE
5
114
100
AcDbEntity
8
0
100
AcDbLine
10
-12.75
20
13.250000000000002
30
0
11
-13.25
21
13.250000000000002
31
0
0
LINE
5
115
100
AcDbEntity
8
0
100
AcDbLine
10
12.75
20
-13.750000000000004
30
0
11
12.75
21
-13.250000000000004
31
0
0
LINE
5
116
100
AcDbEntity
8
0
100
AcDbLine
10
12.75
20
-13.250000000000004
30
0
11
13.25
21
-13.250000000000004
31
0
0
LINE
5
117
100
AcDbEntity
8
0
100
AcDbLine
10
13.25
20
-13.250000000000004
30
0
11
13.25
21
-12.750000000000007
31
0
0
LINE
5
118
100
AcDbEntity
8
0
100
AcDbLine
10
13.75
20
-12.750000000000004
30
0
11
13.25
21
-12.750000000000007
31
0
0
ARC
5
119
100
AcDbEntity
8
0
100
AcDbCircle
10
12.75
20
-12.750000000000004
30
0
40
1.0000000000000009
210
0
220
0
230
1
100
AcDbArc
50
-90
51
0
0
LINE
5
120
100
AcDbEntity
8
0
100
AcDbLine
10
-13.75
20
-12.750000000000004
30
0
11
-13.25
21
-12.750000000000007
31
0
0
LINE
5
121
100
AcDbEntity
8
0
100
AcDbLine
10
-13.250000000000002
20
-13.250000000000007
30
0
11
-13.25
21
-12.750000000000007
31
0
0
LINE
5
122
100
AcDbEntity
8
0
100
AcDbLine
10
-12.75
20
-13.250000000000007
30
0
11
-13.250000000000002
21
-13.250000000000007
31
0
0
LINE
5
123
100
AcDbEntity
8
0
100
AcDbLine
10
-12.75
20
-13.750000000000004
30
0
11
-12.75
21
-13.250000000000007
31
0
0
ARC
5
124
100
AcDbEntity
8
0
100
AcDbCircle
10
-12.75
20
-12.750000000000004
30
0
40
1.0000000000000009
210
0
220
0
230
1
100
AcDbArc
50
180
51
270
0
LWPOLYLINE
5
125
100
AcDbEntity
8
0
100
AcDbPolyline
90
16
70
1
43
0.0
10
12.75
20
13.25
10
-12.75
20
13.250000000000002
42
0.41421356237309509
10
-13.25
20
12.750000000000002
10
-13.25
20
4.0000000000000027
42
-0.41421356237309692
10
-14
20
3.2500000000000022
10
-213.04999999999993
20
3.2500000000000027
42
0.41421356237324547
10
-213.24999999999994
20
3.0500000000000052
10
-213.25000000000006
20
-3.0500000000000052
42
0.4142135623730967
10
-213.05000000000001
20
-3.2500000000000062
10
-14
20
-3.2500000000000053
42
-0.41421356237309293
10
-13.250000000000002
20
-4.0000000000000053
10
-13.250000000000004
20
-12.750000000000005
42
0.41421356237308982
10
-12.750000000000004
20
-13.250000000000007
10
12.750000000000004
20
-13.250000000000009
42
0.41421356237309243
10
13.25
20
-12.750000000000007
10
13.25
20
12.75
42
0.41421356237309509
0
LINE
5
126
100
AcDbEntity
8
0
100
AcDbLine
10
-12.75
20
-13.75
30
0
11
12.75
21
-13.75
31
0
0
LINE
5
127
100
AcDbEntity
8
0
100
AcDbLine
10
-13.250000000000002
20
-13.250000000000007
30
0
11
-13.25
21
13.250000000000002
31
0
0
LINE
5
128
100
AcDbEntity
8
0
100
AcDbLine
10
-7.0000000000000009
20
-11
30
0
11
-7.0707106781186555
21
-11.070710678118656
31
0
0
LINE
5
129
100
AcDbEntity
8
0
100
AcDbLine
10
-7.0000000000000009
20
-11
30
0
11
-6.9000000000000004
21
-11
31
0
0
LINE
5
130
100
AcDbEntity
8
0
100
AcDbLine
10
7.0000000000000009
20
-11
30
0
11
7.0707106781186555
21
-11.070710678118656
31
0
0
LINE
5
131
100
AcDbEntity
8
0
100
AcDbLine
10
-7.0000000000000018
20
10.999999999999996
30
0
11
-7.0707106781186546
21
11.070710678118651
31
0
0
LINE
5
132
100
AcDbEntity
8
0
100
AcDbLine
10
7.0000000000000018
20
10.999999999999996
30
0
11
7.0707106781186546
21
11.070710678118651
31
0
0
ENDSEC
0
SECTION
2
OBJECTS
0
DICTIONARY
5
C
100
AcDbDictionary
3
ACAD_GROUP
350
D
3
ACAD_MLINESTYLE
350
17
0
DICTIONARY
5
D
100
AcDbDictionary
0
DICTIONARY
5
1A
330
C
100
AcDbDictionary
0
DICTIONARY
5
17
100
AcDbDictionary
0
ENDSEC
0
EOF
