ISO-10303-21;
HEADER;
/* Generated by software containing ST-Developer
 * from STEP Tools, Inc. (www.steptools.com) 
 */
/* OPTION: using custom renumber hook */

FILE_DESCRIPTION(
/* description */ ('STEP AP242',
'CAx-IF Rec.Pracs.---Representation and Presentation of Product Manufa
cturing Information (PMI)---4.0---2014-10-13',
'CAx-IF Rec.Pracs.---3D Tessellated Geometry---0.4---2014-09-14','2;1'),

/* implementation_level */ '2;1');

FILE_NAME(
/* name */ '62830cc361f534038b1290f3',
/* time_stamp */ '2022-05-17T02:47:32+00:00',
/* author */ (''),
/* organization */ (''),
/* preprocessor_version */ 'ST-DEVELOPER v18.102',
/* originating_system */ '  ',
/* authorisation */ '  ');

FILE_SCHEMA (('AP242_MANAGED_MODEL_BASED_3D_ENGINEERING_MIM_LF { 1 0 10303 442 1 1 4 }'));
ENDSEC;

DATA;
#10=SHAPE_REPRESENTATION_RELATIONSHIP('','',#161,#11);
#11=ADVANCED_BREP_SHAPE_REPRESENTATION('',(#159),#259);
#12=CYLINDRICAL_SURFACE('',#171,0.00023);
#13=CYLINDRICAL_SURFACE('',#174,0.00023);
#14=CIRCLE('',#166,0.00023);
#15=CIRCLE('',#167,0.00023);
#16=CIRCLE('',#172,0.00023);
#17=CIRCLE('',#175,0.00023);
#18=ORIENTED_EDGE('',*,*,#50,.F.);
#19=ORIENTED_EDGE('',*,*,#51,.F.);
#20=ORIENTED_EDGE('',*,*,#52,.T.);
#21=ORIENTED_EDGE('',*,*,#53,.T.);
#22=ORIENTED_EDGE('',*,*,#54,.T.);
#23=ORIENTED_EDGE('',*,*,#55,.F.);
#24=ORIENTED_EDGE('',*,*,#56,.F.);
#25=ORIENTED_EDGE('',*,*,#51,.T.);
#26=ORIENTED_EDGE('',*,*,#57,.T.);
#27=ORIENTED_EDGE('',*,*,#58,.F.);
#28=ORIENTED_EDGE('',*,*,#59,.T.);
#29=ORIENTED_EDGE('',*,*,#60,.F.);
#30=ORIENTED_EDGE('',*,*,#61,.F.);
#31=ORIENTED_EDGE('',*,*,#55,.T.);
#32=ORIENTED_EDGE('',*,*,#62,.F.);
#33=ORIENTED_EDGE('',*,*,#53,.F.);
#34=ORIENTED_EDGE('',*,*,#63,.T.);
#35=ORIENTED_EDGE('',*,*,#60,.T.);
#36=ORIENTED_EDGE('',*,*,#52,.F.);
#37=ORIENTED_EDGE('',*,*,#56,.T.);
#38=ORIENTED_EDGE('',*,*,#61,.T.);
#39=ORIENTED_EDGE('',*,*,#63,.F.);
#40=ORIENTED_EDGE('',*,*,#50,.T.);
#41=ORIENTED_EDGE('',*,*,#62,.T.);
#42=ORIENTED_EDGE('',*,*,#59,.F.);
#43=ORIENTED_EDGE('',*,*,#54,.F.);
#44=ORIENTED_EDGE('',*,*,#64,.F.);
#45=ORIENTED_EDGE('',*,*,#58,.T.);
#46=ORIENTED_EDGE('',*,*,#64,.T.);
#47=ORIENTED_EDGE('',*,*,#65,.T.);
#48=ORIENTED_EDGE('',*,*,#57,.F.);
#49=ORIENTED_EDGE('',*,*,#65,.F.);
#50=EDGE_CURVE('',#66,#67,#78,.T.);
#51=EDGE_CURVE('',#68,#66,#79,.T.);
#52=EDGE_CURVE('',#68,#69,#80,.T.);
#53=EDGE_CURVE('',#69,#67,#81,.T.);
#54=EDGE_CURVE('',#66,#70,#82,.T.);
#55=EDGE_CURVE('',#71,#70,#83,.T.);
#56=EDGE_CURVE('',#68,#71,#84,.T.);
#57=EDGE_CURVE('',#72,#72,#14,.T.);
#58=EDGE_CURVE('',#73,#73,#15,.T.);
#59=EDGE_CURVE('',#70,#74,#85,.T.);
#60=EDGE_CURVE('',#75,#74,#86,.T.);
#61=EDGE_CURVE('',#71,#75,#87,.T.);
#62=EDGE_CURVE('',#67,#74,#88,.T.);
#63=EDGE_CURVE('',#69,#75,#89,.T.);
#64=EDGE_CURVE('',#76,#76,#16,.T.);
#65=EDGE_CURVE('',#77,#77,#17,.T.);
#66=VERTEX_POINT('',#222);
#67=VERTEX_POINT('',#223);
#68=VERTEX_POINT('',#225);
#69=VERTEX_POINT('',#227);
#70=VERTEX_POINT('',#231);
#71=VERTEX_POINT('',#233);
#72=VERTEX_POINT('',#237);
#73=VERTEX_POINT('',#239);
#74=VERTEX_POINT('',#241);
#75=VERTEX_POINT('',#243);
#76=VERTEX_POINT('',#252);
#77=VERTEX_POINT('',#256);
#78=LINE('',#221,#90);
#79=LINE('',#224,#91);
#80=LINE('',#226,#92);
#81=LINE('',#228,#93);
#82=LINE('',#230,#94);
#83=LINE('',#232,#95);
#84=LINE('',#234,#96);
#85=LINE('',#240,#97);
#86=LINE('',#242,#98);
#87=LINE('',#244,#99);
#88=LINE('',#246,#100);
#89=LINE('',#247,#101);
#90=VECTOR('',#181,1.);
#91=VECTOR('',#182,1.);
#92=VECTOR('',#183,1.);
#93=VECTOR('',#184,1.);
#94=VECTOR('',#187,1.);
#95=VECTOR('',#188,1.);
#96=VECTOR('',#189,1.);
#97=VECTOR('',#196,1.);
#98=VECTOR('',#197,1.);
#99=VECTOR('',#198,1.);
#100=VECTOR('',#201,1.);
#101=VECTOR('',#202,1.);
#102=EDGE_LOOP('',(#18,#19,#20,#21));
#103=EDGE_LOOP('',(#22,#23,#24,#25));
#104=EDGE_LOOP('',(#26));
#105=EDGE_LOOP('',(#27));
#106=EDGE_LOOP('',(#28,#29,#30,#31));
#107=EDGE_LOOP('',(#32,#33,#34,#35));
#108=EDGE_LOOP('',(#36,#37,#38,#39));
#109=EDGE_LOOP('',(#40,#41,#42,#43));
#110=EDGE_LOOP('',(#44));
#111=EDGE_LOOP('',(#45));
#112=EDGE_LOOP('',(#46));
#113=EDGE_LOOP('',(#47));
#114=EDGE_LOOP('',(#48));
#115=EDGE_LOOP('',(#49));
#116=FACE_BOUND('',#102,.T.);
#117=FACE_BOUND('',#103,.T.);
#118=FACE_BOUND('',#104,.T.);
#119=FACE_BOUND('',#105,.T.);
#120=FACE_BOUND('',#106,.T.);
#121=FACE_BOUND('',#107,.T.);
#122=FACE_BOUND('',#108,.T.);
#123=FACE_BOUND('',#109,.T.);
#124=FACE_BOUND('',#110,.T.);
#125=FACE_BOUND('',#111,.T.);
#126=FACE_BOUND('',#112,.T.);
#127=FACE_BOUND('',#113,.T.);
#128=FACE_BOUND('',#114,.T.);
#129=FACE_BOUND('',#115,.T.);
#130=PLANE('',#163);
#131=PLANE('',#164);
#132=PLANE('',#165);
#133=PLANE('',#168);
#134=PLANE('',#169);
#135=PLANE('',#170);
#136=PLANE('',#173);
#137=PLANE('',#176);
#138=ADVANCED_FACE('',(#116),#130,.T.);
#139=ADVANCED_FACE('',(#117),#131,.F.);
#140=ADVANCED_FACE('',(#118,#119,#120),#132,.F.);
#141=ADVANCED_FACE('',(#121),#133,.T.);
#142=ADVANCED_FACE('',(#122),#134,.T.);
#143=ADVANCED_FACE('',(#123),#135,.F.);
#144=ADVANCED_FACE('',(#124,#125),#12,.T.);
#145=ADVANCED_FACE('',(#126),#136,.T.);
#146=ADVANCED_FACE('',(#127,#128),#13,.T.);
#147=ADVANCED_FACE('',(#129),#137,.T.);
#148=CLOSED_SHELL('',(#138,#139,#140,#141,#142,#143,#144,#145,#146,#147));
#149=STYLED_ITEM('',(#150),#159);
#150=PRESENTATION_STYLE_ASSIGNMENT((#151));
#151=SURFACE_STYLE_USAGE(.BOTH.,#152);
#152=SURFACE_SIDE_STYLE('',(#155,#153));
#153=SURFACE_STYLE_RENDERING_WITH_PROPERTIES(.CONSTANT_SHADING.,#158,(#154));
#154=SURFACE_STYLE_TRANSPARENT(0.501960784313726);
#155=SURFACE_STYLE_FILL_AREA(#156);
#156=FILL_AREA_STYLE('',(#157));
#157=FILL_AREA_STYLE_COLOUR('',#158);
#158=COLOUR_RGB('',0.901960784313726,0.901960784313726,0.901960784313726);
#159=MANIFOLD_SOLID_BREP('Part 1',#148);
#160=SHAPE_DEFINITION_REPRESENTATION(#264,#161);
#161=SHAPE_REPRESENTATION('Part 1',(#162),#259);
#162=AXIS2_PLACEMENT_3D('',#219,#177,#178);
#163=AXIS2_PLACEMENT_3D('',#220,#179,#180);
#164=AXIS2_PLACEMENT_3D('',#229,#185,#186);
#165=AXIS2_PLACEMENT_3D('',#235,#190,#191);
#166=AXIS2_PLACEMENT_3D('',#236,#192,#193);
#167=AXIS2_PLACEMENT_3D('',#238,#194,#195);
#168=AXIS2_PLACEMENT_3D('',#245,#199,#200);
#169=AXIS2_PLACEMENT_3D('',#248,#203,#204);
#170=AXIS2_PLACEMENT_3D('',#249,#205,#206);
#171=AXIS2_PLACEMENT_3D('',#250,#207,#208);
#172=AXIS2_PLACEMENT_3D('',#251,#209,#210);
#173=AXIS2_PLACEMENT_3D('',#253,#211,#212);
#174=AXIS2_PLACEMENT_3D('',#254,#213,#214);
#175=AXIS2_PLACEMENT_3D('',#255,#215,#216);
#176=AXIS2_PLACEMENT_3D('',#257,#217,#218);
#177=DIRECTION('',(0.,0.,1.));
#178=DIRECTION('',(1.,0.,0.));
#179=DIRECTION('',(0.,0.,1.));
#180=DIRECTION('',(1.,0.,0.));
#181=DIRECTION('',(1.,0.,0.));
#182=DIRECTION('',(0.,1.,0.));
#183=DIRECTION('',(1.,0.,0.));
#184=DIRECTION('',(0.,1.,0.));
#185=DIRECTION('',(1.,0.,0.));
#186=DIRECTION('',(0.,0.,-1.));
#187=DIRECTION('',(0.,0.,-1.));
#188=DIRECTION('',(0.,1.,0.));
#189=DIRECTION('',(0.,0.,-1.));
#190=DIRECTION('',(0.,0.,1.));
#191=DIRECTION('',(1.,0.,0.));
#192=DIRECTION('',(0.,0.,1.));
#193=DIRECTION('',(-1.,0.,0.));
#194=DIRECTION('',(0.,0.,-1.));
#195=DIRECTION('',(-1.,0.,0.));
#196=DIRECTION('',(1.,0.,0.));
#197=DIRECTION('',(0.,1.,0.));
#198=DIRECTION('',(1.,0.,0.));
#199=DIRECTION('',(1.,0.,0.));
#200=DIRECTION('',(0.,0.,-1.));
#201=DIRECTION('',(0.,0.,-1.));
#202=DIRECTION('',(0.,0.,-1.));
#203=DIRECTION('',(0.,-1.,0.));
#204=DIRECTION('',(1.,0.,0.));
#205=DIRECTION('',(0.,-1.,0.));
#206=DIRECTION('',(1.,0.,0.));
#207=DIRECTION('',(0.,0.,1.));
#208=DIRECTION('',(1.,0.,0.));
#209=DIRECTION('',(0.,0.,-1.));
#210=DIRECTION('',(-1.,0.,0.));
#211=DIRECTION('',(0.,0.,-1.));
#212=DIRECTION('',(1.,0.,0.));
#213=DIRECTION('',(0.,0.,1.));
#214=DIRECTION('',(1.,0.,0.));
#215=DIRECTION('',(0.,0.,1.));
#216=DIRECTION('',(-1.,0.,0.));
#217=DIRECTION('',(0.,0.,-1.));
#218=DIRECTION('',(1.,0.,0.));
#219=CARTESIAN_POINT('',(0.,0.,0.));
#220=CARTESIAN_POINT('',(0.002285,-0.0017,0.));
#221=CARTESIAN_POINT('',(0.002285,0.,0.));
#222=CARTESIAN_POINT('',(0.,0.,0.));
#223=CARTESIAN_POINT('',(0.00457,0.,0.));
#224=CARTESIAN_POINT('',(0.,-0.0017,0.));
#225=CARTESIAN_POINT('',(0.,-0.0017,0.));
#226=CARTESIAN_POINT('',(0.002285,-0.0017,0.));
#227=CARTESIAN_POINT('',(0.00457,-0.0017,0.));
#228=CARTESIAN_POINT('',(0.00457,-0.0017,0.));
#229=CARTESIAN_POINT('',(0.,-0.0017,-0.00292));
#230=CARTESIAN_POINT('',(0.,0.,-0.00292));
#231=CARTESIAN_POINT('',(4.33680868994202E-19,0.,-0.00584));
#232=CARTESIAN_POINT('',(4.33680868994202E-19,-0.0017,-0.00584));
#233=CARTESIAN_POINT('',(4.33680868994202E-19,-0.0017,-0.00584));
#234=CARTESIAN_POINT('',(0.,-0.0017,-0.00292));
#235=CARTESIAN_POINT('',(0.002285,-0.0017,-0.00584));
#236=CARTESIAN_POINT('',(0.001015,-0.00085,-0.00584));
#237=CARTESIAN_POINT('',(0.000785,-0.00085,-0.00584));
#238=CARTESIAN_POINT('',(0.003555,-0.00085,-0.00584));
#239=CARTESIAN_POINT('',(0.003325,-0.00085,-0.00584));
#240=CARTESIAN_POINT('',(0.002285,0.,-0.00584));
#241=CARTESIAN_POINT('',(0.00457,0.,-0.00584));
#242=CARTESIAN_POINT('',(0.00457,-0.0017,-0.00584));
#243=CARTESIAN_POINT('',(0.00457,-0.0017,-0.00584));
#244=CARTESIAN_POINT('',(0.002285,-0.0017,-0.00584));
#245=CARTESIAN_POINT('',(0.00457,-0.0017,-0.00292));
#246=CARTESIAN_POINT('',(0.00457,0.,-0.00292));
#247=CARTESIAN_POINT('',(0.00457,-0.0017,-0.00292));
#248=CARTESIAN_POINT('',(0.002285,-0.0017,-0.00292));
#249=CARTESIAN_POINT('',(0.002285,0.,-0.00292));
#250=CARTESIAN_POINT('',(0.003555,-0.00085,-0.02084));
#251=CARTESIAN_POINT('',(0.003555,-0.00085,-0.02084));
#252=CARTESIAN_POINT('',(0.003325,-0.00085,-0.02084));
#253=CARTESIAN_POINT('',(0.002285,-0.00085,-0.02084));
#254=CARTESIAN_POINT('',(0.001015,-0.00085,-0.02084));
#255=CARTESIAN_POINT('',(0.001015,-0.00085,-0.02084));
#256=CARTESIAN_POINT('',(0.000785,-0.00085,-0.02084));
#257=CARTESIAN_POINT('',(0.002285,-0.00085,-0.02084));
#258=MECHANICAL_DESIGN_GEOMETRIC_PRESENTATION_REPRESENTATION('',(#149),
#259);
#259=(
GEOMETRIC_REPRESENTATION_CONTEXT(3)
GLOBAL_UNCERTAINTY_ASSIGNED_CONTEXT((#260))
GLOBAL_UNIT_ASSIGNED_CONTEXT((#263,#262,#261))
REPRESENTATION_CONTEXT('Part 1','TOP_LEVEL_ASSEMBLY_PART')
);
#260=UNCERTAINTY_MEASURE_WITH_UNIT(LENGTH_MEASURE(5.E-6),#263,
'DISTANCE_ACCURACY_VALUE','Maximum Tolerance applied to model');
#261=(
NAMED_UNIT(*)
SI_UNIT($,.STERADIAN.)
SOLID_ANGLE_UNIT()
);
#262=(
NAMED_UNIT(*)
PLANE_ANGLE_UNIT()
SI_UNIT($,.RADIAN.)
);
#263=(
LENGTH_UNIT()
NAMED_UNIT(*)
SI_UNIT($,.METRE.)
);
#264=PRODUCT_DEFINITION_SHAPE('','',#265);
#265=PRODUCT_DEFINITION('','',#267,#266);
#266=PRODUCT_DEFINITION_CONTEXT('',#273,'design');
#267=PRODUCT_DEFINITION_FORMATION_WITH_SPECIFIED_SOURCE('','',#269,
 .NOT_KNOWN.);
#268=PRODUCT_RELATED_PRODUCT_CATEGORY('','',(#269));
#269=PRODUCT('Part 1','Part 1','Part 1',(#271));
#270=PRODUCT_CATEGORY('','');
#271=PRODUCT_CONTEXT('',#273,'mechanical');
#272=APPLICATION_PROTOCOL_DEFINITION('international standard',
'ap242_managed_model_based_3d_engineering',2011,#273);
#273=APPLICATION_CONTEXT('managed model based 3d engineering');
ENDSEC;
END-ISO-10303-21;
