ISO-10303-21;
HEADER;
FILE_DESCRIPTION(('CAx-IF Rec.Pracs.---Model Styling and Organization---1.5---2016-08-15','CAx-IF Rec.Pracs.---Geometric and Assembly Validation Properties---4.4---2016-08-17','CAx-IF Rec.Pracs.---User Defined Attributes---1.5---2016-08-15','CAx-IF Rec.Pracs.---External References---2.1---2005-01-19'),'2;1');
FILE_NAME('3448448.step','2025-02-02T20:57:03',('Unspecified'),('Unspecified'),'CAD Exchanger 3.10.2 (cadexchanger.com)','Unspecified','');
FILE_SCHEMA(('AUTOMOTIVE_DESIGN { 1 0 10303 214 1 1 1 1 }'));
ENDSEC;
DATA;
#1=APPLICATION_CONTEXT('core data for automotive mechanical design processes');
#2=APPLICATION_PROTOCOL_DEFINITION('international standard','automotive_design',2000,#1);
#3=PRODUCT_CONTEXT('',#1,'mechanical');
#4=PRODUCT('ASSEMBLY','ASSEMBLY',$,(#3));
#5=PRODUCT_DEFINITION_FORMATION('',$,#4);
#6=PRODUCT_DEFINITION_CONTEXT('part definition',#1,'design');
#7=PRODUCT_DEFINITION('design',$,#5,#6);
#8=PRODUCT_DEFINITION_SHAPE('',$,#7);
#9=AXIS2_PLACEMENT_3D('',#10,#11,#12);
#10=CARTESIAN_POINT('',(0.0,0.0,0.0));
#11=DIRECTION('',(0.0,0.0,1.0));
#12=DIRECTION('',(1.0,0.0,0.0));
#13=AXIS2_PLACEMENT_3D('',#14,#15,#16);
#14=CARTESIAN_POINT('',(-0.5,-0.25,0.0));
#15=DIRECTION('',(0.0,0.0,1.0));
#16=DIRECTION('',(1.0,0.0,0.0));
#17=AXIS2_PLACEMENT_3D('',#18,#19,#20);
#18=CARTESIAN_POINT('',(0.25,-0.25,0.0));
#19=DIRECTION('',(0.0,0.0,1.0));
#20=DIRECTION('',(1.0,0.0,0.0));
#21=AXIS2_PLACEMENT_3D('',#22,#23,#24);
#22=CARTESIAN_POINT('',(-0.25,-0.245,0.0055));
#23=DIRECTION('',(0.0,0.0,1.0));
#24=DIRECTION('',(1.0,0.0,0.0));
#25=(GEOMETRIC_REPRESENTATION_CONTEXT(3)GLOBAL_UNIT_ASSIGNED_CONTEXT((#26,#27,#28))REPRESENTATION_CONTEXT('',''));
#26=(LENGTH_UNIT()NAMED_UNIT(*)SI_UNIT(.MILLI.,.METRE.));
#27=(NAMED_UNIT(*)PLANE_ANGLE_UNIT()SI_UNIT($,.RADIAN.));
#28=(NAMED_UNIT(*)SI_UNIT($,.STERADIAN.)SOLID_ANGLE_UNIT());
#29=SHAPE_REPRESENTATION('',(#9,#13,#17,#21),#25);
#30=SHAPE_DEFINITION_REPRESENTATION(#8,#29);
#31=PRODUCT_RELATED_PRODUCT_CATEGORY('assembly',$,(#4));
#32=MANIFOLD_SOLID_BREP('',#33);
#33=CLOSED_SHELL('',(#34,#74,#114,#136,#158,#170));
#34=ADVANCED_FACE('',(#35),#69,.F.);
#35=FACE_BOUND('',#36,.T.);
#36=EDGE_LOOP('',(#37,#47,#55,#63));
#37=ORIENTED_EDGE('',*,*,#38,.T.);
#38=EDGE_CURVE('',#39,#41,#43,.T.);
#39=VERTEX_POINT('',#40);
#40=CARTESIAN_POINT('',(0.0,0.0,0.55));
#41=VERTEX_POINT('',#42);
#42=CARTESIAN_POINT('',(0.0,0.5,0.55));
#43=LINE('',#44,#45);
#44=CARTESIAN_POINT('',(0.0,0.0,0.55));
#45=VECTOR('',#46,1.0);
#46=DIRECTION('',(0.0,1.0,0.0));
#47=ORIENTED_EDGE('',*,*,#48,.T.);
#48=EDGE_CURVE('',#41,#49,#51,.F.);
#49=VERTEX_POINT('',#50);
#50=CARTESIAN_POINT('',(0.0,0.5,0.0));
#51=LINE('',#52,#53);
#52=CARTESIAN_POINT('',(0.0,0.5,0.0));
#53=VECTOR('',#54,1.0);
#54=DIRECTION('',(0.0,0.0,1.0));
#55=ORIENTED_EDGE('',*,*,#56,.T.);
#56=EDGE_CURVE('',#49,#57,#59,.F.);
#57=VERTEX_POINT('',#58);
#58=CARTESIAN_POINT('',(0.0,0.0,0.0));
#59=LINE('',#60,#61);
#60=CARTESIAN_POINT('',(0.0,0.0,0.0));
#61=VECTOR('',#62,1.0);
#62=DIRECTION('',(0.0,1.0,0.0));
#63=ORIENTED_EDGE('',*,*,#64,.T.);
#64=EDGE_CURVE('',#57,#39,#65,.T.);
#65=LINE('',#66,#67);
#66=CARTESIAN_POINT('',(0.0,0.0,0.0));
#67=VECTOR('',#68,1.0);
#68=DIRECTION('',(0.0,0.0,1.0));
#69=PLANE('',#70);
#70=AXIS2_PLACEMENT_3D('',#71,#72,#73);
#71=CARTESIAN_POINT('',(0.0,0.0,0.0));
#72=DIRECTION('',(1.0,0.0,0.0));
#73=DIRECTION('',(0.0,0.0,1.0));
#74=ADVANCED_FACE('',(#75),#109,.T.);
#75=FACE_BOUND('',#76,.T.);
#76=EDGE_LOOP('',(#77,#87,#95,#103));
#77=ORIENTED_EDGE('',*,*,#78,.T.);
#78=EDGE_CURVE('',#79,#81,#83,.F.);
#79=VERTEX_POINT('',#80);
#80=CARTESIAN_POINT('',(0.25,0.0,0.55));
#81=VERTEX_POINT('',#82);
#82=CARTESIAN_POINT('',(0.25,0.0,0.0));
#83=LINE('',#84,#85);
#84=CARTESIAN_POINT('',(0.25,0.0,0.0));
#85=VECTOR('',#86,1.0);
#86=DIRECTION('',(0.0,0.0,1.0));
#87=ORIENTED_EDGE('',*,*,#88,.T.);
#88=EDGE_CURVE('',#81,#89,#91,.T.);
#89=VERTEX_POINT('',#90);
#90=CARTESIAN_POINT('',(0.25,0.5,0.0));
#91=LINE('',#92,#93);
#92=CARTESIAN_POINT('',(0.25,0.0,0.0));
#93=VECTOR('',#94,1.0);
#94=DIRECTION('',(0.0,1.0,0.0));
#95=ORIENTED_EDGE('',*,*,#96,.T.);
#96=EDGE_CURVE('',#89,#97,#99,.T.);
#97=VERTEX_POINT('',#98);
#98=CARTESIAN_POINT('',(0.25,0.5,0.55));
#99=LINE('',#100,#101);
#100=CARTESIAN_POINT('',(0.25,0.5,0.0));
#101=VECTOR('',#102,1.0);
#102=DIRECTION('',(0.0,0.0,1.0));
#103=ORIENTED_EDGE('',*,*,#104,.T.);
#104=EDGE_CURVE('',#97,#79,#105,.F.);
#105=LINE('',#106,#107);
#106=CARTESIAN_POINT('',(0.25,0.0,0.55));
#107=VECTOR('',#108,1.0);
#108=DIRECTION('',(0.0,1.0,0.0));
#109=PLANE('',#110);
#110=AXIS2_PLACEMENT_3D('',#111,#112,#113);
#111=CARTESIAN_POINT('',(0.25,0.0,0.0));
#112=DIRECTION('',(1.0,0.0,0.0));
#113=DIRECTION('',(0.0,0.0,1.0));
#114=ADVANCED_FACE('',(#115),#131,.F.);
#115=FACE_BOUND('',#116,.T.);
#116=EDGE_LOOP('',(#117,#118,#124,#125));
#117=ORIENTED_EDGE('',*,*,#78,.F.);
#118=ORIENTED_EDGE('',*,*,#119,.T.);
#119=EDGE_CURVE('',#79,#39,#120,.F.);
#120=LINE('',#121,#122);
#121=CARTESIAN_POINT('',(0.0,0.0,0.55));
#122=VECTOR('',#123,1.0);
#123=DIRECTION('',(1.0,0.0,0.0));
#124=ORIENTED_EDGE('',*,*,#64,.F.);
#125=ORIENTED_EDGE('',*,*,#126,.T.);
#126=EDGE_CURVE('',#57,#81,#127,.T.);
#127=LINE('',#128,#129);
#128=CARTESIAN_POINT('',(0.0,0.0,0.0));
#129=VECTOR('',#130,1.0);
#130=DIRECTION('',(1.0,0.0,0.0));
#131=PLANE('',#132);
#132=AXIS2_PLACEMENT_3D('',#133,#134,#135);
#133=CARTESIAN_POINT('',(0.0,0.0,0.0));
#134=DIRECTION('',(0.0,1.0,0.0));
#135=DIRECTION('',(0.0,0.0,1.0));
#136=ADVANCED_FACE('',(#137),#153,.T.);
#137=FACE_BOUND('',#138,.T.);
#138=EDGE_LOOP('',(#139,#145,#146,#152));
#139=ORIENTED_EDGE('',*,*,#140,.T.);
#140=EDGE_CURVE('',#89,#49,#141,.F.);
#141=LINE('',#142,#143);
#142=CARTESIAN_POINT('',(0.0,0.5,0.0));
#143=VECTOR('',#144,1.0);
#144=DIRECTION('',(1.0,0.0,0.0));
#145=ORIENTED_EDGE('',*,*,#48,.F.);
#146=ORIENTED_EDGE('',*,*,#147,.T.);
#147=EDGE_CURVE('',#41,#97,#148,.T.);
#148=LINE('',#149,#150);
#149=CARTESIAN_POINT('',(0.0,0.5,0.55));
#150=VECTOR('',#151,1.0);
#151=DIRECTION('',(1.0,0.0,0.0));
#152=ORIENTED_EDGE('',*,*,#96,.F.);
#153=PLANE('',#154);
#154=AXIS2_PLACEMENT_3D('',#155,#156,#157);
#155=CARTESIAN_POINT('',(0.0,0.5,0.0));
#156=DIRECTION('',(0.0,1.0,0.0));
#157=DIRECTION('',(0.0,0.0,1.0));
#158=ADVANCED_FACE('',(#159),#165,.F.);
#159=FACE_BOUND('',#160,.T.);
#160=EDGE_LOOP('',(#161,#162,#163,#164));
#161=ORIENTED_EDGE('',*,*,#140,.F.);
#162=ORIENTED_EDGE('',*,*,#88,.F.);
#163=ORIENTED_EDGE('',*,*,#126,.F.);
#164=ORIENTED_EDGE('',*,*,#56,.F.);
#165=PLANE('',#166);
#166=AXIS2_PLACEMENT_3D('',#167,#168,#169);
#167=CARTESIAN_POINT('',(0.0,0.0,0.0));
#168=DIRECTION('',(0.0,0.0,1.0));
#169=DIRECTION('',(1.0,0.0,0.0));
#170=ADVANCED_FACE('',(#171),#177,.T.);
#171=FACE_BOUND('',#172,.T.);
#172=EDGE_LOOP('',(#173,#174,#175,#176));
#173=ORIENTED_EDGE('',*,*,#38,.F.);
#174=ORIENTED_EDGE('',*,*,#119,.F.);
#175=ORIENTED_EDGE('',*,*,#104,.F.);
#176=ORIENTED_EDGE('',*,*,#147,.F.);
#177=PLANE('',#178);
#178=AXIS2_PLACEMENT_3D('',#179,#180,#181);
#179=CARTESIAN_POINT('',(0.0,0.0,0.55));
#180=DIRECTION('',(0.0,0.0,1.0));
#181=DIRECTION('',(1.0,0.0,0.0));
#182=(GEOMETRIC_REPRESENTATION_CONTEXT(3)GLOBAL_UNCERTAINTY_ASSIGNED_CONTEXT((#183))GLOBAL_UNIT_ASSIGNED_CONTEXT((#26,#27,#28))REPRESENTATION_CONTEXT('',''));
#183=UNCERTAINTY_MEASURE_WITH_UNIT(LENGTH_MEASURE(1.0E-07),#26,'','maximum tolerance');
#184=ADVANCED_BREP_SHAPE_REPRESENTATION('',(#32,#9),#182);
#185=(REPRESENTATION_RELATIONSHIP('',$,#184,#29)REPRESENTATION_RELATIONSHIP_WITH_TRANSFORMATION(#186)SHAPE_REPRESENTATION_RELATIONSHIP());
#186=ITEM_DEFINED_TRANSFORMATION('',$,#9,#13);
#187=PRODUCT('term1','term1',$,(#3));
#188=PRODUCT_DEFINITION_FORMATION('',$,#187);
#189=PRODUCT_DEFINITION('design',$,#188,#6);
#190=NEXT_ASSEMBLY_USAGE_OCCURRENCE('instance_1','','',#7,#189,$);
#191=PRODUCT_DEFINITION_SHAPE('',$,#190);
#192=CONTEXT_DEPENDENT_SHAPE_REPRESENTATION(#185,#191);
#193=PRODUCT_DEFINITION_SHAPE('',$,#189);
#194=SHAPE_DEFINITION_REPRESENTATION(#193,#184);
#195=PRODUCT_RELATED_PRODUCT_CATEGORY('part',$,(#187));
#196=STYLED_ITEM('',(#197),#32);
#197=PRESENTATION_STYLE_ASSIGNMENT((#198));
#198=SURFACE_STYLE_USAGE(.BOTH.,#199);
#199=SURFACE_SIDE_STYLE('',(#200));
#200=SURFACE_STYLE_FILL_AREA(#201);
#201=FILL_AREA_STYLE('',(#203));
#202=COLOUR_RGB('',0.734000027,0.773000002,0.796999991);
#203=FILL_AREA_STYLE_COLOUR('',#202);
#204=MECHANICAL_DESIGN_GEOMETRIC_PRESENTATION_REPRESENTATION('',(#196),#182);
#205=MANIFOLD_SOLID_BREP('',#206);
#206=CLOSED_SHELL('',(#207,#247,#287,#309,#331,#343));
#207=ADVANCED_FACE('',(#208),#242,.F.);
#208=FACE_BOUND('',#209,.T.);
#209=EDGE_LOOP('',(#210,#220,#228,#236));
#210=ORIENTED_EDGE('',*,*,#211,.T.);
#211=EDGE_CURVE('',#212,#214,#216,.T.);
#212=VERTEX_POINT('',#213);
#213=CARTESIAN_POINT('',(0.0,0.0,0.55));
#214=VERTEX_POINT('',#215);
#215=CARTESIAN_POINT('',(0.0,0.5,0.55));
#216=LINE('',#217,#218);
#217=CARTESIAN_POINT('',(0.0,0.0,0.55));
#218=VECTOR('',#219,1.0);
#219=DIRECTION('',(0.0,1.0,0.0));
#220=ORIENTED_EDGE('',*,*,#221,.T.);
#221=EDGE_CURVE('',#214,#222,#224,.F.);
#222=VERTEX_POINT('',#223);
#223=CARTESIAN_POINT('',(0.0,0.5,0.0));
#224=LINE('',#225,#226);
#225=CARTESIAN_POINT('',(0.0,0.5,0.0));
#226=VECTOR('',#227,1.0);
#227=DIRECTION('',(0.0,0.0,1.0));
#228=ORIENTED_EDGE('',*,*,#229,.T.);
#229=EDGE_CURVE('',#222,#230,#232,.F.);
#230=VERTEX_POINT('',#231);
#231=CARTESIAN_POINT('',(0.0,0.0,0.0));
#232=LINE('',#233,#234);
#233=CARTESIAN_POINT('',(0.0,0.0,0.0));
#234=VECTOR('',#235,1.0);
#235=DIRECTION('',(0.0,1.0,0.0));
#236=ORIENTED_EDGE('',*,*,#237,.T.);
#237=EDGE_CURVE('',#230,#212,#238,.T.);
#238=LINE('',#239,#240);
#239=CARTESIAN_POINT('',(0.0,0.0,0.0));
#240=VECTOR('',#241,1.0);
#241=DIRECTION('',(0.0,0.0,1.0));
#242=PLANE('',#243);
#243=AXIS2_PLACEMENT_3D('',#244,#245,#246);
#244=CARTESIAN_POINT('',(0.0,0.0,0.0));
#245=DIRECTION('',(1.0,0.0,0.0));
#246=DIRECTION('',(0.0,0.0,1.0));
#247=ADVANCED_FACE('',(#248),#282,.T.);
#248=FACE_BOUND('',#249,.T.);
#249=EDGE_LOOP('',(#250,#260,#268,#276));
#250=ORIENTED_EDGE('',*,*,#251,.T.);
#251=EDGE_CURVE('',#252,#254,#256,.F.);
#252=VERTEX_POINT('',#253);
#253=CARTESIAN_POINT('',(0.25,0.0,0.55));
#254=VERTEX_POINT('',#255);
#255=CARTESIAN_POINT('',(0.25,0.0,0.0));
#256=LINE('',#257,#258);
#257=CARTESIAN_POINT('',(0.25,0.0,0.0));
#258=VECTOR('',#259,1.0);
#259=DIRECTION('',(0.0,0.0,1.0));
#260=ORIENTED_EDGE('',*,*,#261,.T.);
#261=EDGE_CURVE('',#254,#262,#264,.T.);
#262=VERTEX_POINT('',#263);
#263=CARTESIAN_POINT('',(0.25,0.5,0.0));
#264=LINE('',#265,#266);
#265=CARTESIAN_POINT('',(0.25,0.0,0.0));
#266=VECTOR('',#267,1.0);
#267=DIRECTION('',(0.0,1.0,0.0));
#268=ORIENTED_EDGE('',*,*,#269,.T.);
#269=EDGE_CURVE('',#262,#270,#272,.T.);
#270=VERTEX_POINT('',#271);
#271=CARTESIAN_POINT('',(0.25,0.5,0.55));
#272=LINE('',#273,#274);
#273=CARTESIAN_POINT('',(0.25,0.5,0.0));
#274=VECTOR('',#275,1.0);
#275=DIRECTION('',(0.0,0.0,1.0));
#276=ORIENTED_EDGE('',*,*,#277,.T.);
#277=EDGE_CURVE('',#270,#252,#278,.F.);
#278=LINE('',#279,#280);
#279=CARTESIAN_POINT('',(0.25,0.0,0.55));
#280=VECTOR('',#281,1.0);
#281=DIRECTION('',(0.0,1.0,0.0));
#282=PLANE('',#283);
#283=AXIS2_PLACEMENT_3D('',#284,#285,#286);
#284=CARTESIAN_POINT('',(0.25,0.0,0.0));
#285=DIRECTION('',(1.0,0.0,0.0));
#286=DIRECTION('',(0.0,0.0,1.0));
#287=ADVANCED_FACE('',(#288),#304,.F.);
#288=FACE_BOUND('',#289,.T.);
#289=EDGE_LOOP('',(#290,#291,#297,#298));
#290=ORIENTED_EDGE('',*,*,#251,.F.);
#291=ORIENTED_EDGE('',*,*,#292,.T.);
#292=EDGE_CURVE('',#252,#212,#293,.F.);
#293=LINE('',#294,#295);
#294=CARTESIAN_POINT('',(0.0,0.0,0.55));
#295=VECTOR('',#296,1.0);
#296=DIRECTION('',(1.0,0.0,0.0));
#297=ORIENTED_EDGE('',*,*,#237,.F.);
#298=ORIENTED_EDGE('',*,*,#299,.T.);
#299=EDGE_CURVE('',#230,#254,#300,.T.);
#300=LINE('',#301,#302);
#301=CARTESIAN_POINT('',(0.0,0.0,0.0));
#302=VECTOR('',#303,1.0);
#303=DIRECTION('',(1.0,0.0,0.0));
#304=PLANE('',#305);
#305=AXIS2_PLACEMENT_3D('',#306,#307,#308);
#306=CARTESIAN_POINT('',(0.0,0.0,0.0));
#307=DIRECTION('',(0.0,1.0,0.0));
#308=DIRECTION('',(0.0,0.0,1.0));
#309=ADVANCED_FACE('',(#310),#326,.T.);
#310=FACE_BOUND('',#311,.T.);
#311=EDGE_LOOP('',(#312,#318,#319,#325));
#312=ORIENTED_EDGE('',*,*,#313,.T.);
#313=EDGE_CURVE('',#262,#222,#314,.F.);
#314=LINE('',#315,#316);
#315=CARTESIAN_POINT('',(0.0,0.5,0.0));
#316=VECTOR('',#317,1.0);
#317=DIRECTION('',(1.0,0.0,0.0));
#318=ORIENTED_EDGE('',*,*,#221,.F.);
#319=ORIENTED_EDGE('',*,*,#320,.T.);
#320=EDGE_CURVE('',#214,#270,#321,.T.);
#321=LINE('',#322,#323);
#322=CARTESIAN_POINT('',(0.0,0.5,0.55));
#323=VECTOR('',#324,1.0);
#324=DIRECTION('',(1.0,0.0,0.0));
#325=ORIENTED_EDGE('',*,*,#269,.F.);
#326=PLANE('',#327);
#327=AXIS2_PLACEMENT_3D('',#328,#329,#330);
#328=CARTESIAN_POINT('',(0.0,0.5,0.0));
#329=DIRECTION('',(0.0,1.0,0.0));
#330=DIRECTION('',(0.0,0.0,1.0));
#331=ADVANCED_FACE('',(#332),#338,.F.);
#332=FACE_BOUND('',#333,.T.);
#333=EDGE_LOOP('',(#334,#335,#336,#337));
#334=ORIENTED_EDGE('',*,*,#313,.F.);
#335=ORIENTED_EDGE('',*,*,#261,.F.);
#336=ORIENTED_EDGE('',*,*,#299,.F.);
#337=ORIENTED_EDGE('',*,*,#229,.F.);
#338=PLANE('',#339);
#339=AXIS2_PLACEMENT_3D('',#340,#341,#342);
#340=CARTESIAN_POINT('',(0.0,0.0,0.0));
#341=DIRECTION('',(0.0,0.0,1.0));
#342=DIRECTION('',(1.0,0.0,0.0));
#343=ADVANCED_FACE('',(#344),#350,.T.);
#344=FACE_BOUND('',#345,.T.);
#345=EDGE_LOOP('',(#346,#347,#348,#349));
#346=ORIENTED_EDGE('',*,*,#211,.F.);
#347=ORIENTED_EDGE('',*,*,#292,.F.);
#348=ORIENTED_EDGE('',*,*,#277,.F.);
#349=ORIENTED_EDGE('',*,*,#320,.F.);
#350=PLANE('',#351);
#351=AXIS2_PLACEMENT_3D('',#352,#353,#354);
#352=CARTESIAN_POINT('',(0.0,0.0,0.55));
#353=DIRECTION('',(0.0,0.0,1.0));
#354=DIRECTION('',(1.0,0.0,0.0));
#355=(GEOMETRIC_REPRESENTATION_CONTEXT(3)GLOBAL_UNCERTAINTY_ASSIGNED_CONTEXT((#356))GLOBAL_UNIT_ASSIGNED_CONTEXT((#26,#27,#28))REPRESENTATION_CONTEXT('',''));
#356=UNCERTAINTY_MEASURE_WITH_UNIT(LENGTH_MEASURE(1.0E-07),#26,'','maximum tolerance');
#357=ADVANCED_BREP_SHAPE_REPRESENTATION('',(#205,#9),#355);
#358=(REPRESENTATION_RELATIONSHIP('',$,#357,#29)REPRESENTATION_RELATIONSHIP_WITH_TRANSFORMATION(#359)SHAPE_REPRESENTATION_RELATIONSHIP());
#359=ITEM_DEFINED_TRANSFORMATION('',$,#9,#17);
#360=PRODUCT('term2','term2',$,(#3));
#361=PRODUCT_DEFINITION_FORMATION('',$,#360);
#362=PRODUCT_DEFINITION('design',$,#361,#6);
#363=NEXT_ASSEMBLY_USAGE_OCCURRENCE('instance_2','','',#7,#362,$);
#364=PRODUCT_DEFINITION_SHAPE('',$,#363);
#365=CONTEXT_DEPENDENT_SHAPE_REPRESENTATION(#358,#364);
#366=PRODUCT_DEFINITION_SHAPE('',$,#362);
#367=SHAPE_DEFINITION_REPRESENTATION(#366,#357);
#368=PRODUCT_RELATED_PRODUCT_CATEGORY('part',$,(#360));
#369=STYLED_ITEM('',(#370),#205);
#370=PRESENTATION_STYLE_ASSIGNMENT((#371));
#371=SURFACE_STYLE_USAGE(.BOTH.,#372);
#372=SURFACE_SIDE_STYLE('',(#373));
#373=SURFACE_STYLE_FILL_AREA(#374);
#374=FILL_AREA_STYLE('',(#376));
#375=COLOUR_RGB('',0.734000027,0.773000002,0.796999991);
#376=FILL_AREA_STYLE_COLOUR('',#375);
#377=MECHANICAL_DESIGN_GEOMETRIC_PRESENTATION_REPRESENTATION('',(#369),#355);
#378=MANIFOLD_SOLID_BREP('',#379);
#379=CLOSED_SHELL('',(#380,#420,#460,#482,#504,#516));
#380=ADVANCED_FACE('',(#381),#415,.F.);
#381=FACE_BOUND('',#382,.T.);
#382=EDGE_LOOP('',(#383,#393,#401,#409));
#383=ORIENTED_EDGE('',*,*,#384,.T.);
#384=EDGE_CURVE('',#385,#387,#389,.T.);
#385=VERTEX_POINT('',#386);
#386=CARTESIAN_POINT('',(0.0,0.0,0.539));
#387=VERTEX_POINT('',#388);
#388=CARTESIAN_POINT('',(0.0,0.49,0.539));
#389=LINE('',#390,#391);
#390=CARTESIAN_POINT('',(0.0,0.0,0.539));
#391=VECTOR('',#392,1.0);
#392=DIRECTION('',(0.0,1.0,0.0));
#393=ORIENTED_EDGE('',*,*,#394,.T.);
#394=EDGE_CURVE('',#387,#395,#397,.F.);
#395=VERTEX_POINT('',#396);
#396=CARTESIAN_POINT('',(0.0,0.49,0.0));
#397=LINE('',#398,#399);
#398=CARTESIAN_POINT('',(0.0,0.49,0.0));
#399=VECTOR('',#400,1.0);
#400=DIRECTION('',(0.0,0.0,1.0));
#401=ORIENTED_EDGE('',*,*,#402,.T.);
#402=EDGE_CURVE('',#395,#403,#405,.F.);
#403=VERTEX_POINT('',#404);
#404=CARTESIAN_POINT('',(0.0,0.0,0.0));
#405=LINE('',#406,#407);
#406=CARTESIAN_POINT('',(0.0,0.0,0.0));
#407=VECTOR('',#408,1.0);
#408=DIRECTION('',(0.0,1.0,0.0));
#409=ORIENTED_EDGE('',*,*,#410,.T.);
#410=EDGE_CURVE('',#403,#385,#411,.T.);
#411=LINE('',#412,#413);
#412=CARTESIAN_POINT('',(0.0,0.0,0.0));
#413=VECTOR('',#414,1.0);
#414=DIRECTION('',(0.0,0.0,1.0));
#415=PLANE('',#416);
#416=AXIS2_PLACEMENT_3D('',#417,#418,#419);
#417=CARTESIAN_POINT('',(0.0,0.0,0.0));
#418=DIRECTION('',(1.0,0.0,0.0));
#419=DIRECTION('',(0.0,0.0,1.0));
#420=ADVANCED_FACE('',(#421),#455,.T.);
#421=FACE_BOUND('',#422,.T.);
#422=EDGE_LOOP('',(#423,#433,#441,#449));
#423=ORIENTED_EDGE('',*,*,#424,.T.);
#424=EDGE_CURVE('',#425,#427,#429,.F.);
#425=VERTEX_POINT('',#426);
#426=CARTESIAN_POINT('',(0.5,0.0,0.539));
#427=VERTEX_POINT('',#428);
#428=CARTESIAN_POINT('',(0.5,0.0,0.0));
#429=LINE('',#430,#431);
#430=CARTESIAN_POINT('',(0.5,0.0,0.0));
#431=VECTOR('',#432,1.0);
#432=DIRECTION('',(0.0,0.0,1.0));
#433=ORIENTED_EDGE('',*,*,#434,.T.);
#434=EDGE_CURVE('',#427,#435,#437,.T.);
#435=VERTEX_POINT('',#436);
#436=CARTESIAN_POINT('',(0.5,0.49,0.0));
#437=LINE('',#438,#439);
#438=CARTESIAN_POINT('',(0.5,0.0,0.0));
#439=VECTOR('',#440,1.0);
#440=DIRECTION('',(0.0,1.0,0.0));
#441=ORIENTED_EDGE('',*,*,#442,.T.);
#442=EDGE_CURVE('',#435,#443,#445,.T.);
#443=VERTEX_POINT('',#444);
#444=CARTESIAN_POINT('',(0.5,0.49,0.539));
#445=LINE('',#446,#447);
#446=CARTESIAN_POINT('',(0.5,0.49,0.0));
#447=VECTOR('',#448,1.0);
#448=DIRECTION('',(0.0,0.0,1.0));
#449=ORIENTED_EDGE('',*,*,#450,.T.);
#450=EDGE_CURVE('',#443,#425,#451,.F.);
#451=LINE('',#452,#453);
#452=CARTESIAN_POINT('',(0.5,0.0,0.539));
#453=VECTOR('',#454,1.0);
#454=DIRECTION('',(0.0,1.0,0.0));
#455=PLANE('',#456);
#456=AXIS2_PLACEMENT_3D('',#457,#458,#459);
#457=CARTESIAN_POINT('',(0.5,0.0,0.0));
#458=DIRECTION('',(1.0,0.0,0.0));
#459=DIRECTION('',(0.0,0.0,1.0));
#460=ADVANCED_FACE('',(#461),#477,.F.);
#461=FACE_BOUND('',#462,.T.);
#462=EDGE_LOOP('',(#463,#464,#470,#471));
#463=ORIENTED_EDGE('',*,*,#424,.F.);
#464=ORIENTED_EDGE('',*,*,#465,.T.);
#465=EDGE_CURVE('',#425,#385,#466,.F.);
#466=LINE('',#467,#468);
#467=CARTESIAN_POINT('',(0.0,0.0,0.539));
#468=VECTOR('',#469,1.0);
#469=DIRECTION('',(1.0,0.0,0.0));
#470=ORIENTED_EDGE('',*,*,#410,.F.);
#471=ORIENTED_EDGE('',*,*,#472,.T.);
#472=EDGE_CURVE('',#403,#427,#473,.T.);
#473=LINE('',#474,#475);
#474=CARTESIAN_POINT('',(0.0,0.0,0.0));
#475=VECTOR('',#476,1.0);
#476=DIRECTION('',(1.0,0.0,0.0));
#477=PLANE('',#478);
#478=AXIS2_PLACEMENT_3D('',#479,#480,#481);
#479=CARTESIAN_POINT('',(0.0,0.0,0.0));
#480=DIRECTION('',(0.0,1.0,0.0));
#481=DIRECTION('',(0.0,0.0,1.0));
#482=ADVANCED_FACE('',(#483),#499,.T.);
#483=FACE_BOUND('',#484,.T.);
#484=EDGE_LOOP('',(#485,#491,#492,#498));
#485=ORIENTED_EDGE('',*,*,#486,.T.);
#486=EDGE_CURVE('',#435,#395,#487,.F.);
#487=LINE('',#488,#489);
#488=CARTESIAN_POINT('',(0.0,0.49,0.0));
#489=VECTOR('',#490,1.0);
#490=DIRECTION('',(1.0,0.0,0.0));
#491=ORIENTED_EDGE('',*,*,#394,.F.);
#492=ORIENTED_EDGE('',*,*,#493,.T.);
#493=EDGE_CURVE('',#387,#443,#494,.T.);
#494=LINE('',#495,#496);
#495=CARTESIAN_POINT('',(0.0,0.49,0.539));
#496=VECTOR('',#497,1.0);
#497=DIRECTION('',(1.0,0.0,0.0));
#498=ORIENTED_EDGE('',*,*,#442,.F.);
#499=PLANE('',#500);
#500=AXIS2_PLACEMENT_3D('',#501,#502,#503);
#501=CARTESIAN_POINT('',(0.0,0.49,0.0));
#502=DIRECTION('',(0.0,1.0,0.0));
#503=DIRECTION('',(0.0,0.0,1.0));
#504=ADVANCED_FACE('',(#505),#511,.F.);
#505=FACE_BOUND('',#506,.T.);
#506=EDGE_LOOP('',(#507,#508,#509,#510));
#507=ORIENTED_EDGE('',*,*,#486,.F.);
#508=ORIENTED_EDGE('',*,*,#434,.F.);
#509=ORIENTED_EDGE('',*,*,#472,.F.);
#510=ORIENTED_EDGE('',*,*,#402,.F.);
#511=PLANE('',#512);
#512=AXIS2_PLACEMENT_3D('',#513,#514,#515);
#513=CARTESIAN_POINT('',(0.0,0.0,0.0));
#514=DIRECTION('',(0.0,0.0,1.0));
#515=DIRECTION('',(1.0,0.0,0.0));
#516=ADVANCED_FACE('',(#517),#523,.T.);
#517=FACE_BOUND('',#518,.T.);
#518=EDGE_LOOP('',(#519,#520,#521,#522));
#519=ORIENTED_EDGE('',*,*,#384,.F.);
#520=ORIENTED_EDGE('',*,*,#465,.F.);
#521=ORIENTED_EDGE('',*,*,#450,.F.);
#522=ORIENTED_EDGE('',*,*,#493,.F.);
#523=PLANE('',#524);
#524=AXIS2_PLACEMENT_3D('',#525,#526,#527);
#525=CARTESIAN_POINT('',(0.0,0.0,0.539));
#526=DIRECTION('',(0.0,0.0,1.0));
#527=DIRECTION('',(1.0,0.0,0.0));
#528=(GEOMETRIC_REPRESENTATION_CONTEXT(3)GLOBAL_UNCERTAINTY_ASSIGNED_CONTEXT((#529))GLOBAL_UNIT_ASSIGNED_CONTEXT((#26,#27,#28))REPRESENTATION_CONTEXT('',''));
#529=UNCERTAINTY_MEASURE_WITH_UNIT(LENGTH_MEASURE(1.0E-07),#26,'','maximum tolerance');
#530=ADVANCED_BREP_SHAPE_REPRESENTATION('',(#378,#9),#528);
#531=(REPRESENTATION_RELATIONSHIP('',$,#530,#29)REPRESENTATION_RELATIONSHIP_WITH_TRANSFORMATION(#532)SHAPE_REPRESENTATION_RELATIONSHIP());
#532=ITEM_DEFINED_TRANSFORMATION('',$,#9,#21);
#533=PRODUCT('body','body',$,(#3));
#534=PRODUCT_DEFINITION_FORMATION('',$,#533);
#535=PRODUCT_DEFINITION('design',$,#534,#6);
#536=NEXT_ASSEMBLY_USAGE_OCCURRENCE('instance_3','','',#7,#535,$);
#537=PRODUCT_DEFINITION_SHAPE('',$,#536);
#538=CONTEXT_DEPENDENT_SHAPE_REPRESENTATION(#531,#537);
#539=PRODUCT_DEFINITION_SHAPE('',$,#535);
#540=SHAPE_DEFINITION_REPRESENTATION(#539,#530);
#541=PRODUCT_RELATED_PRODUCT_CATEGORY('part',$,(#533));
#542=STYLED_ITEM('',(#543),#378);
#543=PRESENTATION_STYLE_ASSIGNMENT((#544));
#544=SURFACE_STYLE_USAGE(.BOTH.,#545);
#545=SURFACE_SIDE_STYLE('',(#546));
#546=SURFACE_STYLE_FILL_AREA(#547);
#547=FILL_AREA_STYLE('',(#549));
#548=COLOUR_RGB('',0.100000001,0.100000001,0.899999976);
#549=FILL_AREA_STYLE_COLOUR('',#548);
#550=MECHANICAL_DESIGN_GEOMETRIC_PRESENTATION_REPRESENTATION('',(#542),#528);
ENDSEC;
END-ISO-10303-21;
