ISO-10303-21;
HEADER;
/* Generated by software containing ST-Developer
 * from STEP Tools, Inc. (www.steptools.com) 
 */

FILE_DESCRIPTION(
/* description */ ('',
'CAx-IF Rec.Pracs.---Representation and Presentation of Product Manufa
cturing Information (PMI)---4.0---2014-10-13'),
/* implementation_level */ '2;1');

FILE_NAME(
/* name */ 'LED.step',
/* time_stamp */ '2025-03-16T21:19:09+01:00',
/* author */ (''),
/* organization */ (''),
/* preprocessor_version */ 'ST-DEVELOPER v20',
/* originating_system */ 'Autodesk Translation Framework v13.20.0.188',

/* authorisation */ '');

FILE_SCHEMA (('AP242_MANAGED_MODEL_BASED_3D_ENGINEERING_MIM_LF { 1 0 10303 442 1 1 4 }'));
ENDSEC;

DATA;
#10=MECHANICAL_DESIGN_GEOMETRIC_PRESENTATION_REPRESENTATION('',(#13,#14,
#15),#446);
#11=SHAPE_REPRESENTATION_RELATIONSHIP('SRR','None',#453,#12);
#12=ADVANCED_BREP_SHAPE_REPRESENTATION('',(#16,#17),#445);
#13=STYLED_ITEM('',(#463),#16);
#14=STYLED_ITEM('',(#464),#260);
#15=STYLED_ITEM('',(#463),#17);
#16=MANIFOLD_SOLID_BREP('Body1',#261);
#17=MANIFOLD_SOLID_BREP('Body2',#262);
#18=SPHERICAL_SURFACE('',#291,1.53);
#19=SPHERICAL_SURFACE('',#297,1.53);
#20=CYLINDRICAL_SURFACE('',#288,1.53);
#21=CIRCLE('',#283,1.53);
#22=CIRCLE('',#289,1.53);
#23=CIRCLE('',#290,1.53);
#24=CIRCLE('',#292,1.51687178100194);
#25=CIRCLE('',#293,1.53);
#26=CIRCLE('',#296,1.51687178100194);
#27=CIRCLE('',#298,1.53);
#28=FACE_BOUND('',#48,.T.);
#29=FACE_BOUND('',#54,.T.);
#30=FACE_OUTER_BOUND('',#46,.T.);
#31=FACE_OUTER_BOUND('',#47,.T.);
#32=FACE_OUTER_BOUND('',#49,.T.);
#33=FACE_OUTER_BOUND('',#50,.T.);
#34=FACE_OUTER_BOUND('',#51,.T.);
#35=FACE_OUTER_BOUND('',#52,.T.);
#36=FACE_OUTER_BOUND('',#53,.T.);
#37=FACE_OUTER_BOUND('',#55,.T.);
#38=FACE_OUTER_BOUND('',#56,.T.);
#39=FACE_OUTER_BOUND('',#57,.T.);
#40=FACE_OUTER_BOUND('',#58,.T.);
#41=FACE_OUTER_BOUND('',#59,.T.);
#42=FACE_OUTER_BOUND('',#60,.T.);
#43=FACE_OUTER_BOUND('',#61,.T.);
#44=FACE_OUTER_BOUND('',#62,.T.);
#45=FACE_OUTER_BOUND('',#63,.T.);
#46=EDGE_LOOP('',(#168,#169,#170,#171));
#47=EDGE_LOOP('',(#172,#173,#174,#175));
#48=EDGE_LOOP('',(#176,#177,#178,#179));
#49=EDGE_LOOP('',(#180,#181,#182,#183));
#50=EDGE_LOOP('',(#184,#185,#186,#187));
#51=EDGE_LOOP('',(#188,#189,#190,#191));
#52=EDGE_LOOP('',(#192,#193,#194,#195));
#53=EDGE_LOOP('',(#196,#197,#198,#199));
#54=EDGE_LOOP('',(#200));
#55=EDGE_LOOP('',(#201,#202,#203,#204));
#56=EDGE_LOOP('',(#205,#206,#207,#208));
#57=EDGE_LOOP('',(#209,#210,#211,#212));
#58=EDGE_LOOP('',(#213,#214,#215,#216));
#59=EDGE_LOOP('',(#217,#218,#219,#220,#221));
#60=EDGE_LOOP('',(#222,#223,#224,#225,#226));
#61=EDGE_LOOP('',(#227));
#62=EDGE_LOOP('',(#228));
#63=EDGE_LOOP('',(#229,#230,#231));
#64=LINE('',#376,#89);
#65=LINE('',#378,#90);
#66=LINE('',#380,#91);
#67=LINE('',#381,#92);
#68=LINE('',#385,#93);
#69=LINE('',#387,#94);
#70=LINE('',#389,#95);
#71=LINE('',#390,#96);
#72=LINE('',#393,#97);
#73=LINE('',#395,#98);
#74=LINE('',#397,#99);
#75=LINE('',#398,#100);
#76=LINE('',#400,#101);
#77=LINE('',#401,#102);
#78=LINE('',#403,#103);
#79=LINE('',#405,#104);
#80=LINE('',#410,#105);
#81=LINE('',#412,#106);
#82=LINE('',#414,#107);
#83=LINE('',#415,#108);
#84=LINE('',#419,#109);
#85=LINE('',#420,#110);
#86=LINE('',#422,#111);
#87=LINE('',#424,#112);
#88=LINE('',#428,#113);
#89=VECTOR('',#303,10.);
#90=VECTOR('',#304,10.);
#91=VECTOR('',#305,10.);
#92=VECTOR('',#306,10.);
#93=VECTOR('',#309,10.);
#94=VECTOR('',#310,10.);
#95=VECTOR('',#311,10.);
#96=VECTOR('',#312,10.);
#97=VECTOR('',#313,10.);
#98=VECTOR('',#314,10.);
#99=VECTOR('',#315,10.);
#100=VECTOR('',#316,10.);
#101=VECTOR('',#319,10.);
#102=VECTOR('',#320,10.);
#103=VECTOR('',#323,10.);
#104=VECTOR('',#326,10.);
#105=VECTOR('',#331,10.);
#106=VECTOR('',#332,10.);
#107=VECTOR('',#333,10.);
#108=VECTOR('',#334,10.);
#109=VECTOR('',#339,10.);
#110=VECTOR('',#340,10.);
#111=VECTOR('',#343,10.);
#112=VECTOR('',#346,10.);
#113=VECTOR('',#351,1.53);
#114=VERTEX_POINT('',#374);
#115=VERTEX_POINT('',#375);
#116=VERTEX_POINT('',#377);
#117=VERTEX_POINT('',#379);
#118=VERTEX_POINT('',#383);
#119=VERTEX_POINT('',#384);
#120=VERTEX_POINT('',#386);
#121=VERTEX_POINT('',#388);
#122=VERTEX_POINT('',#391);
#123=VERTEX_POINT('',#392);
#124=VERTEX_POINT('',#394);
#125=VERTEX_POINT('',#396);
#126=VERTEX_POINT('',#408);
#127=VERTEX_POINT('',#409);
#128=VERTEX_POINT('',#411);
#129=VERTEX_POINT('',#413);
#130=VERTEX_POINT('',#416);
#131=VERTEX_POINT('',#427);
#132=VERTEX_POINT('',#429);
#133=VERTEX_POINT('',#433);
#134=VERTEX_POINT('',#438);
#135=VERTEX_POINT('',#441);
#136=EDGE_CURVE('',#114,#115,#64,.T.);
#137=EDGE_CURVE('',#115,#116,#65,.T.);
#138=EDGE_CURVE('',#116,#117,#66,.T.);
#139=EDGE_CURVE('',#117,#114,#67,.T.);
#140=EDGE_CURVE('',#118,#119,#68,.T.);
#141=EDGE_CURVE('',#119,#120,#69,.T.);
#142=EDGE_CURVE('',#120,#121,#70,.T.);
#143=EDGE_CURVE('',#121,#118,#71,.T.);
#144=EDGE_CURVE('',#122,#123,#72,.T.);
#145=EDGE_CURVE('',#123,#124,#73,.T.);
#146=EDGE_CURVE('',#124,#125,#74,.T.);
#147=EDGE_CURVE('',#125,#122,#75,.T.);
#148=EDGE_CURVE('',#114,#119,#76,.T.);
#149=EDGE_CURVE('',#115,#118,#77,.T.);
#150=EDGE_CURVE('',#117,#120,#78,.T.);
#151=EDGE_CURVE('',#116,#121,#79,.T.);
#152=EDGE_CURVE('',#126,#127,#80,.T.);
#153=EDGE_CURVE('',#127,#128,#81,.T.);
#154=EDGE_CURVE('',#128,#129,#82,.T.);
#155=EDGE_CURVE('',#129,#126,#83,.T.);
#156=EDGE_CURVE('',#130,#130,#21,.T.);
#157=EDGE_CURVE('',#125,#127,#84,.T.);
#158=EDGE_CURVE('',#122,#126,#85,.T.);
#159=EDGE_CURVE('',#124,#128,#86,.T.);
#160=EDGE_CURVE('',#123,#129,#87,.T.);
#161=EDGE_CURVE('',#130,#131,#88,.T.);
#162=EDGE_CURVE('',#131,#132,#22,.T.);
#163=EDGE_CURVE('',#132,#131,#23,.T.);
#164=EDGE_CURVE('',#133,#133,#24,.T.);
#165=EDGE_CURVE('',#133,#132,#25,.T.);
#166=EDGE_CURVE('',#134,#134,#26,.T.);
#167=EDGE_CURVE('',#135,#134,#27,.T.);
#168=ORIENTED_EDGE('',*,*,#136,.T.);
#169=ORIENTED_EDGE('',*,*,#137,.T.);
#170=ORIENTED_EDGE('',*,*,#138,.T.);
#171=ORIENTED_EDGE('',*,*,#139,.T.);
#172=ORIENTED_EDGE('',*,*,#140,.T.);
#173=ORIENTED_EDGE('',*,*,#141,.T.);
#174=ORIENTED_EDGE('',*,*,#142,.T.);
#175=ORIENTED_EDGE('',*,*,#143,.T.);
#176=ORIENTED_EDGE('',*,*,#144,.T.);
#177=ORIENTED_EDGE('',*,*,#145,.T.);
#178=ORIENTED_EDGE('',*,*,#146,.T.);
#179=ORIENTED_EDGE('',*,*,#147,.T.);
#180=ORIENTED_EDGE('',*,*,#136,.F.);
#181=ORIENTED_EDGE('',*,*,#148,.T.);
#182=ORIENTED_EDGE('',*,*,#140,.F.);
#183=ORIENTED_EDGE('',*,*,#149,.F.);
#184=ORIENTED_EDGE('',*,*,#139,.F.);
#185=ORIENTED_EDGE('',*,*,#150,.T.);
#186=ORIENTED_EDGE('',*,*,#141,.F.);
#187=ORIENTED_EDGE('',*,*,#148,.F.);
#188=ORIENTED_EDGE('',*,*,#138,.F.);
#189=ORIENTED_EDGE('',*,*,#151,.T.);
#190=ORIENTED_EDGE('',*,*,#142,.F.);
#191=ORIENTED_EDGE('',*,*,#150,.F.);
#192=ORIENTED_EDGE('',*,*,#137,.F.);
#193=ORIENTED_EDGE('',*,*,#149,.T.);
#194=ORIENTED_EDGE('',*,*,#143,.F.);
#195=ORIENTED_EDGE('',*,*,#151,.F.);
#196=ORIENTED_EDGE('',*,*,#152,.T.);
#197=ORIENTED_EDGE('',*,*,#153,.T.);
#198=ORIENTED_EDGE('',*,*,#154,.T.);
#199=ORIENTED_EDGE('',*,*,#155,.T.);
#200=ORIENTED_EDGE('',*,*,#156,.T.);
#201=ORIENTED_EDGE('',*,*,#147,.F.);
#202=ORIENTED_EDGE('',*,*,#157,.T.);
#203=ORIENTED_EDGE('',*,*,#152,.F.);
#204=ORIENTED_EDGE('',*,*,#158,.F.);
#205=ORIENTED_EDGE('',*,*,#146,.F.);
#206=ORIENTED_EDGE('',*,*,#159,.T.);
#207=ORIENTED_EDGE('',*,*,#153,.F.);
#208=ORIENTED_EDGE('',*,*,#157,.F.);
#209=ORIENTED_EDGE('',*,*,#145,.F.);
#210=ORIENTED_EDGE('',*,*,#160,.T.);
#211=ORIENTED_EDGE('',*,*,#154,.F.);
#212=ORIENTED_EDGE('',*,*,#159,.F.);
#213=ORIENTED_EDGE('',*,*,#144,.F.);
#214=ORIENTED_EDGE('',*,*,#158,.T.);
#215=ORIENTED_EDGE('',*,*,#155,.F.);
#216=ORIENTED_EDGE('',*,*,#160,.F.);
#217=ORIENTED_EDGE('',*,*,#156,.F.);
#218=ORIENTED_EDGE('',*,*,#161,.T.);
#219=ORIENTED_EDGE('',*,*,#162,.T.);
#220=ORIENTED_EDGE('',*,*,#163,.T.);
#221=ORIENTED_EDGE('',*,*,#161,.F.);
#222=ORIENTED_EDGE('',*,*,#164,.F.);
#223=ORIENTED_EDGE('',*,*,#165,.T.);
#224=ORIENTED_EDGE('',*,*,#162,.F.);
#225=ORIENTED_EDGE('',*,*,#163,.F.);
#226=ORIENTED_EDGE('',*,*,#165,.F.);
#227=ORIENTED_EDGE('',*,*,#164,.T.);
#228=ORIENTED_EDGE('',*,*,#166,.F.);
#229=ORIENTED_EDGE('',*,*,#166,.T.);
#230=ORIENTED_EDGE('',*,*,#167,.F.);
#231=ORIENTED_EDGE('',*,*,#167,.T.);
#232=PLANE('',#276);
#233=PLANE('',#277);
#234=PLANE('',#278);
#235=PLANE('',#279);
#236=PLANE('',#280);
#237=PLANE('',#281);
#238=PLANE('',#282);
#239=PLANE('',#284);
#240=PLANE('',#285);
#241=PLANE('',#286);
#242=PLANE('',#287);
#243=PLANE('',#294);
#244=PLANE('',#295);
#245=ADVANCED_FACE('',(#30),#232,.F.);
#246=ADVANCED_FACE('',(#31,#28),#233,.T.);
#247=ADVANCED_FACE('',(#32),#234,.T.);
#248=ADVANCED_FACE('',(#33),#235,.T.);
#249=ADVANCED_FACE('',(#34),#236,.T.);
#250=ADVANCED_FACE('',(#35),#237,.T.);
#251=ADVANCED_FACE('',(#36,#29),#238,.T.);
#252=ADVANCED_FACE('',(#37),#239,.T.);
#253=ADVANCED_FACE('',(#38),#240,.T.);
#254=ADVANCED_FACE('',(#39),#241,.T.);
#255=ADVANCED_FACE('',(#40),#242,.T.);
#256=ADVANCED_FACE('',(#41),#20,.F.);
#257=ADVANCED_FACE('',(#42),#18,.T.);
#258=ADVANCED_FACE('',(#43),#243,.T.);
#259=ADVANCED_FACE('',(#44),#244,.F.);
#260=ADVANCED_FACE('',(#45),#19,.T.);
#261=CLOSED_SHELL('',(#245,#246,#247,#248,#249,#250,#251,#252,#253,#254,
#255,#256,#257,#258));
#262=CLOSED_SHELL('',(#259,#260));
#263=DERIVED_UNIT_ELEMENT(#265,1.);
#264=DERIVED_UNIT_ELEMENT(#448,-3.);
#265=(
MASS_UNIT()
NAMED_UNIT(*)
SI_UNIT(.KILO.,.GRAM.)
);
#266=DERIVED_UNIT((#263,#264));
#267=MEASURE_REPRESENTATION_ITEM('density measure',
POSITIVE_RATIO_MEASURE(7850.),#266);
#268=PROPERTY_DEFINITION_REPRESENTATION(#273,#270);
#269=PROPERTY_DEFINITION_REPRESENTATION(#274,#271);
#270=REPRESENTATION('material name',(#272),#445);
#271=REPRESENTATION('density',(#267),#445);
#272=DESCRIPTIVE_REPRESENTATION_ITEM('Steel','Steel');
#273=PROPERTY_DEFINITION('material property','material name',#455);
#274=PROPERTY_DEFINITION('material property','density of part',#455);
#275=AXIS2_PLACEMENT_3D('',#372,#299,#300);
#276=AXIS2_PLACEMENT_3D('',#373,#301,#302);
#277=AXIS2_PLACEMENT_3D('',#382,#307,#308);
#278=AXIS2_PLACEMENT_3D('',#399,#317,#318);
#279=AXIS2_PLACEMENT_3D('',#402,#321,#322);
#280=AXIS2_PLACEMENT_3D('',#404,#324,#325);
#281=AXIS2_PLACEMENT_3D('',#406,#327,#328);
#282=AXIS2_PLACEMENT_3D('',#407,#329,#330);
#283=AXIS2_PLACEMENT_3D('',#417,#335,#336);
#284=AXIS2_PLACEMENT_3D('',#418,#337,#338);
#285=AXIS2_PLACEMENT_3D('',#421,#341,#342);
#286=AXIS2_PLACEMENT_3D('',#423,#344,#345);
#287=AXIS2_PLACEMENT_3D('',#425,#347,#348);
#288=AXIS2_PLACEMENT_3D('',#426,#349,#350);
#289=AXIS2_PLACEMENT_3D('',#430,#352,#353);
#290=AXIS2_PLACEMENT_3D('',#431,#354,#355);
#291=AXIS2_PLACEMENT_3D('',#432,#356,#357);
#292=AXIS2_PLACEMENT_3D('',#434,#358,#359);
#293=AXIS2_PLACEMENT_3D('',#435,#360,#361);
#294=AXIS2_PLACEMENT_3D('',#436,#362,#363);
#295=AXIS2_PLACEMENT_3D('',#437,#364,#365);
#296=AXIS2_PLACEMENT_3D('',#439,#366,#367);
#297=AXIS2_PLACEMENT_3D('',#440,#368,#369);
#298=AXIS2_PLACEMENT_3D('',#442,#370,#371);
#299=DIRECTION('axis',(0.,0.,1.));
#300=DIRECTION('refdir',(1.,0.,0.));
#301=DIRECTION('center_axis',(0.,0.,1.));
#302=DIRECTION('ref_axis',(1.,0.,0.));
#303=DIRECTION('',(1.,0.,0.));
#304=DIRECTION('',(0.,-1.,0.));
#305=DIRECTION('',(-1.,0.,0.));
#306=DIRECTION('',(0.,1.,0.));
#307=DIRECTION('center_axis',(0.,0.,1.));
#308=DIRECTION('ref_axis',(1.,0.,0.));
#309=DIRECTION('',(-1.,0.,0.));
#310=DIRECTION('',(0.,-1.,0.));
#311=DIRECTION('',(1.,0.,0.));
#312=DIRECTION('',(0.,1.,0.));
#313=DIRECTION('',(1.,0.,0.));
#314=DIRECTION('',(0.,-1.,0.));
#315=DIRECTION('',(-1.,0.,0.));
#316=DIRECTION('',(0.,1.,0.));
#317=DIRECTION('center_axis',(0.,1.,0.));
#318=DIRECTION('ref_axis',(-1.,0.,0.));
#319=DIRECTION('',(0.,0.,1.));
#320=DIRECTION('',(0.,0.,1.));
#321=DIRECTION('center_axis',(-1.,0.,0.));
#322=DIRECTION('ref_axis',(0.,-1.,0.));
#323=DIRECTION('',(0.,0.,1.));
#324=DIRECTION('center_axis',(0.,-1.,0.));
#325=DIRECTION('ref_axis',(1.,0.,0.));
#326=DIRECTION('',(0.,0.,1.));
#327=DIRECTION('center_axis',(1.,0.,0.));
#328=DIRECTION('ref_axis',(0.,1.,0.));
#329=DIRECTION('center_axis',(0.,0.,1.));
#330=DIRECTION('ref_axis',(-1.,0.,0.));
#331=DIRECTION('',(0.,-1.,0.));
#332=DIRECTION('',(1.,0.,0.));
#333=DIRECTION('',(0.,1.,0.));
#334=DIRECTION('',(-1.,0.,0.));
#335=DIRECTION('center_axis',(0.,0.,-1.));
#336=DIRECTION('ref_axis',(-1.,0.,0.));
#337=DIRECTION('center_axis',(-1.,0.,0.));
#338=DIRECTION('ref_axis',(0.,-1.,0.));
#339=DIRECTION('',(0.,0.,1.));
#340=DIRECTION('',(0.,0.,1.));
#341=DIRECTION('center_axis',(0.,-1.,0.));
#342=DIRECTION('ref_axis',(1.,0.,0.));
#343=DIRECTION('',(0.,0.,1.));
#344=DIRECTION('center_axis',(1.,0.,0.));
#345=DIRECTION('ref_axis',(0.,1.,0.));
#346=DIRECTION('',(0.,0.,1.));
#347=DIRECTION('center_axis',(0.,1.,0.));
#348=DIRECTION('ref_axis',(-1.,0.,0.));
#349=DIRECTION('center_axis',(0.,0.,1.));
#350=DIRECTION('ref_axis',(-1.,0.,0.));
#351=DIRECTION('',(0.,0.,-1.));
#352=DIRECTION('center_axis',(0.,0.,-1.));
#353=DIRECTION('ref_axis',(0.,1.,0.));
#354=DIRECTION('center_axis',(0.,0.,-1.));
#355=DIRECTION('ref_axis',(0.,1.,0.));
#356=DIRECTION('center_axis',(6.12323399573677E-17,0.,1.));
#357=DIRECTION('ref_axis',(1.,0.,0.));
#358=DIRECTION('center_axis',(0.,0.,1.));
#359=DIRECTION('ref_axis',(0.,1.,0.));
#360=DIRECTION('center_axis',(1.22464679914735E-16,-1.,0.));
#361=DIRECTION('ref_axis',(-1.,-1.22464679914735E-16,0.));
#362=DIRECTION('center_axis',(0.,0.,1.));
#363=DIRECTION('ref_axis',(1.,0.,0.));
#364=DIRECTION('center_axis',(0.,0.,1.));
#365=DIRECTION('ref_axis',(1.,0.,0.));
#366=DIRECTION('center_axis',(0.,0.,1.));
#367=DIRECTION('ref_axis',(0.,1.,0.));
#368=DIRECTION('center_axis',(6.12323399573677E-17,0.,1.));
#369=DIRECTION('ref_axis',(1.,0.,0.));
#370=DIRECTION('center_axis',(1.22464679914735E-16,-1.,0.));
#371=DIRECTION('ref_axis',(-1.,-1.22464679914735E-16,0.));
#372=CARTESIAN_POINT('',(0.,0.,0.));
#373=CARTESIAN_POINT('Origin',(0.,0.,0.));
#374=CARTESIAN_POINT('',(-1.75,1.75,0.));
#375=CARTESIAN_POINT('',(1.75,1.75,0.));
#376=CARTESIAN_POINT('',(-1.75,1.75,0.));
#377=CARTESIAN_POINT('',(1.75,-1.75,0.));
#378=CARTESIAN_POINT('',(1.75,1.75,0.));
#379=CARTESIAN_POINT('',(-1.75,-1.75,0.));
#380=CARTESIAN_POINT('',(1.75,-1.75,0.));
#381=CARTESIAN_POINT('',(-1.75,-1.75,0.));
#382=CARTESIAN_POINT('Origin',(0.,0.,0.43));
#383=CARTESIAN_POINT('',(1.75,1.75,0.43));
#384=CARTESIAN_POINT('',(-1.75,1.75,0.43));
#385=CARTESIAN_POINT('',(-1.75,1.75,0.43));
#386=CARTESIAN_POINT('',(-1.75,-1.75,0.43));
#387=CARTESIAN_POINT('',(-1.75,-1.75,0.43));
#388=CARTESIAN_POINT('',(1.75,-1.75,0.43));
#389=CARTESIAN_POINT('',(1.75,-1.75,0.43));
#390=CARTESIAN_POINT('',(1.75,1.75,0.43));
#391=CARTESIAN_POINT('',(-1.675,1.675,0.43));
#392=CARTESIAN_POINT('',(1.675,1.675,0.43));
#393=CARTESIAN_POINT('',(0.8375,1.675,0.43));
#394=CARTESIAN_POINT('',(1.675,-1.675,0.43));
#395=CARTESIAN_POINT('',(1.675,-0.8375,0.43));
#396=CARTESIAN_POINT('',(-1.675,-1.675,0.43));
#397=CARTESIAN_POINT('',(-0.8375,-1.675,0.43));
#398=CARTESIAN_POINT('',(-1.675,0.8375,0.43));
#399=CARTESIAN_POINT('Origin',(1.75,1.75,0.));
#400=CARTESIAN_POINT('',(-1.75,1.75,0.));
#401=CARTESIAN_POINT('',(1.75,1.75,0.));
#402=CARTESIAN_POINT('Origin',(-1.75,1.75,0.));
#403=CARTESIAN_POINT('',(-1.75,-1.75,0.));
#404=CARTESIAN_POINT('Origin',(-1.75,-1.75,0.));
#405=CARTESIAN_POINT('',(1.75,-1.75,0.));
#406=CARTESIAN_POINT('Origin',(1.75,-1.75,0.));
#407=CARTESIAN_POINT('Origin',(0.,0.,0.63));
#408=CARTESIAN_POINT('',(-1.675,1.675,0.63));
#409=CARTESIAN_POINT('',(-1.675,-1.675,0.63));
#410=CARTESIAN_POINT('',(-1.675,1.675,0.63));
#411=CARTESIAN_POINT('',(1.675,-1.675,0.63));
#412=CARTESIAN_POINT('',(-1.675,-1.675,0.63));
#413=CARTESIAN_POINT('',(1.675,1.675,0.63));
#414=CARTESIAN_POINT('',(1.675,-1.675,0.63));
#415=CARTESIAN_POINT('',(1.675,1.675,0.63));
#416=CARTESIAN_POINT('',(1.53,1.87370960269545E-16,0.63));
#417=CARTESIAN_POINT('Origin',(0.,0.,0.63));
#418=CARTESIAN_POINT('Origin',(-1.675,1.675,0.43));
#419=CARTESIAN_POINT('',(-1.675,-1.675,0.43));
#420=CARTESIAN_POINT('',(-1.675,1.675,0.43));
#421=CARTESIAN_POINT('Origin',(-1.675,-1.675,0.43));
#422=CARTESIAN_POINT('',(1.675,-1.675,0.43));
#423=CARTESIAN_POINT('Origin',(1.675,-1.675,0.43));
#424=CARTESIAN_POINT('',(1.675,1.675,0.43));
#425=CARTESIAN_POINT('Origin',(1.675,1.675,0.43));
#426=CARTESIAN_POINT('Origin',(0.,0.,0.43));
#427=CARTESIAN_POINT('',(1.53,1.87370960269545E-16,0.43));
#428=CARTESIAN_POINT('',(1.53,1.87370960269545E-16,0.43));
#429=CARTESIAN_POINT('',(-1.53,-1.87370960269545E-16,0.43));
#430=CARTESIAN_POINT('Origin',(0.,0.,0.43));
#431=CARTESIAN_POINT('Origin',(0.,0.,0.43));
#432=CARTESIAN_POINT('Origin',(0.,0.,0.43));
#433=CARTESIAN_POINT('',(-1.51687178100194,-1.85763217132097E-16,0.63));
#434=CARTESIAN_POINT('Origin',(0.,0.,0.63));
#435=CARTESIAN_POINT('Origin',(0.,0.,0.43));
#436=CARTESIAN_POINT('Origin',(0.,0.,0.63));
#437=CARTESIAN_POINT('Origin',(0.,0.,0.63));
#438=CARTESIAN_POINT('',(-1.51687178100194,-1.85763217132097E-16,0.63));
#439=CARTESIAN_POINT('Origin',(0.,0.,0.63));
#440=CARTESIAN_POINT('Origin',(0.,0.,0.43));
#441=CARTESIAN_POINT('',(-9.36854801347725E-17,-1.14731623373632E-32,1.96));
#442=CARTESIAN_POINT('Origin',(0.,0.,0.43));
#443=UNCERTAINTY_MEASURE_WITH_UNIT(LENGTH_MEASURE(0.01),#447,
'DISTANCE_ACCURACY_VALUE',
'Maximum model space distance between geometric entities at asserted c
onnectivities');
#444=UNCERTAINTY_MEASURE_WITH_UNIT(LENGTH_MEASURE(0.01),#447,
'DISTANCE_ACCURACY_VALUE',
'Maximum model space distance between geometric entities at asserted c
onnectivities');
#445=(
GEOMETRIC_REPRESENTATION_CONTEXT(3)
GLOBAL_UNCERTAINTY_ASSIGNED_CONTEXT((#443))
GLOBAL_UNIT_ASSIGNED_CONTEXT((#447,#449,#450))
REPRESENTATION_CONTEXT('','3D')
);
#446=(
GEOMETRIC_REPRESENTATION_CONTEXT(3)
GLOBAL_UNCERTAINTY_ASSIGNED_CONTEXT((#444))
GLOBAL_UNIT_ASSIGNED_CONTEXT((#447,#449,#450))
REPRESENTATION_CONTEXT('','3D')
);
#447=(
LENGTH_UNIT()
NAMED_UNIT(*)
SI_UNIT(.MILLI.,.METRE.)
);
#448=(
LENGTH_UNIT()
NAMED_UNIT(*)
SI_UNIT($,.METRE.)
);
#449=(
NAMED_UNIT(*)
PLANE_ANGLE_UNIT()
SI_UNIT($,.RADIAN.)
);
#450=(
NAMED_UNIT(*)
SI_UNIT($,.STERADIAN.)
SOLID_ANGLE_UNIT()
);
#451=SHAPE_DEFINITION_REPRESENTATION(#452,#453);
#452=PRODUCT_DEFINITION_SHAPE('',$,#455);
#453=SHAPE_REPRESENTATION('',(#275),#445);
#454=PRODUCT_DEFINITION_CONTEXT('part definition',#459,'design');
#455=PRODUCT_DEFINITION('(Unsaved)','(Unsaved)',#456,#454);
#456=PRODUCT_DEFINITION_FORMATION('',$,#461);
#457=PRODUCT_RELATED_PRODUCT_CATEGORY('(Unsaved)','(Unsaved)',(#461));
#458=APPLICATION_PROTOCOL_DEFINITION('international standard',
'ap242_managed_model_based_3d_engineering',2011,#459);
#459=APPLICATION_CONTEXT('Managed model based 3d engineering');
#460=PRODUCT_CONTEXT('part definition',#459,'mechanical');
#461=PRODUCT('(Unsaved)','(Unsaved)',$,(#460));
#462=PRESENTATION_STYLE_ASSIGNMENT((#465));
#463=PRESENTATION_STYLE_ASSIGNMENT((#466));
#464=PRESENTATION_STYLE_ASSIGNMENT((#467));
#465=SURFACE_STYLE_USAGE(.BOTH.,#468);
#466=SURFACE_STYLE_USAGE(.BOTH.,#469);
#467=SURFACE_STYLE_USAGE(.BOTH.,#470);
#468=SURFACE_SIDE_STYLE('',(#471));
#469=SURFACE_SIDE_STYLE('',(#472));
#470=SURFACE_SIDE_STYLE('',(#473));
#471=SURFACE_STYLE_FILL_AREA(#474);
#472=SURFACE_STYLE_FILL_AREA(#475);
#473=SURFACE_STYLE_FILL_AREA(#476);
#474=FILL_AREA_STYLE('Steel - Satin',(#477));
#475=FILL_AREA_STYLE('Steel - Satin',(#478));
#476=FILL_AREA_STYLE('Steel - Satin (1)',(#479));
#477=FILL_AREA_STYLE_COLOUR('Steel - Satin',#480);
#478=FILL_AREA_STYLE_COLOUR('Steel - Satin',#481);
#479=FILL_AREA_STYLE_COLOUR('Steel - Satin (1)',#482);
#480=COLOUR_RGB('Steel - Satin',0.627450980392157,0.627450980392157,0.627450980392157);
#481=COLOUR_RGB('Steel - Satin',0.0627450980392157,0.,0.);
#482=COLOUR_RGB('Steel - Satin (1)',0.956862745098039,0.925490196078431,
0.76078431372549);
ENDSEC;
END-ISO-10303-21;
