ISO-10303-21;
HEADER;
FILE_DESCRIPTION(('STEP AP214'),'1');
FILE_NAME('KXOB25-02X8F-TR_IXY','2023-04-17T11:11:14',(''),(''),'','','');
FILE_SCHEMA(('AUTOMOTIVE_DESIGN'));
ENDSEC;
DATA;
#1=SHAPE_DEFINITION_REPRESENTATION(#2,#3);
#2=PRODUCT_DEFINITION_SHAPE('',$,#4);
#3=SHAPE_REPRESENTATION('',(#71,#367,#664,#1098,#19),#11);
#4=PRODUCT_DEFINITION('design','example product_definition',#6,#5);
#5=PRODUCT_DEFINITION_CONTEXT('3D Mechanical Parts',#10,'design');
#6=PRODUCT_DEFINITION_FORMATION('1.0','first version',#8);
#7=APPLICATION_PROTOCOL_DEFINITION('international standard','automotive_design',2003,#10);
#8=PRODUCT('product','part','',(#9));
#9=PRODUCT_CONTEXT('3D Mechanical Parts',#10,'mechanical');
#10=APPLICATION_CONTEXT('Core Data for Automotive Mechanical Design Process');
#11=(GEOMETRIC_REPRESENTATION_CONTEXT(3) GLOBAL_UNCERTAINTY_ASSIGNED_CONTEXT((#12)) GLOBAL_UNIT_ASSIGNED_CONTEXT((#13,#14,#18)) REPRESENTATION_CONTEXT('ID1','3D'));
#12=UNCERTAINTY_MEASURE_WITH_UNIT(LENGTH_MEASURE(1.E-005),#13,'DISTANCE_ACCURACY_VALUE','Maximum model space distance between geometric entities at asserted connectivities');
#13=(LENGTH_UNIT() NAMED_UNIT(*) SI_UNIT(.MILLI.,.METRE.));
#14=(CONVERSION_BASED_UNIT('degree',#16) NAMED_UNIT(#15) PLANE_ANGLE_UNIT());
#15=DIMENSIONAL_EXPONENTS(0.,0.,0.,0.,0.,0.,0.);
#16=MEASURE_WITH_UNIT(PLANE_ANGLE_MEASURE(0.01745329252),#17);
#17=(NAMED_UNIT(*) PLANE_ANGLE_UNIT() SI_UNIT($,.RADIAN.));
#18=(NAMED_UNIT(*) SI_UNIT($,.STERADIAN.) SOLID_ANGLE_UNIT());
#19=AXIS2_PLACEMENT_3D('',#20,#21,#22);
#20=CARTESIAN_POINT('',(0.0,0.0,0.0));
#21=DIRECTION('',(0.0,0.0,1.0));
#22=DIRECTION('',(1.0,0.0,0.0));
#25=MECHANICAL_DESIGN_GEOMETRIC_PRESENTATION_REPRESENTATION($,(#73,#122,#171,#220,#269,#318,#369,#418,#467,#516,#565,#614,#666,#735,#804,#853,#902,#951,#1000,#1049,#1100,#1169,#1238,#1287,#1336,#1385,#1434,#1483),#11);
#26=PRODUCT_CATEGORY_RELATIONSHIP('','',#27,#28);
#27=PRODUCT_CATEGORY('part','');
#28=PRODUCT_RELATED_PRODUCT_CATEGORY('','',(#8));
#34=PRESENTATION_STYLE_ASSIGNMENT((#35,#40));
#35=SURFACE_STYLE_USAGE(.BOTH.,#36);
#36=SURFACE_SIDE_STYLE('',(#37));
#37=SURFACE_STYLE_FILL_AREA(#38);
#38=FILL_AREA_STYLE('',(#39));
#39=FILL_AREA_STYLE_COLOUR('',#41);
#40=CURVE_STYLE('',#42,POSITIVE_LENGTH_MEASURE(0.1),#41);
#41=COLOUR_RGB('Aluminum',0.725,0.725,0.725);
#42=DRAUGHTING_PRE_DEFINED_CURVE_FONT('continuous');
#43=PRESENTATION_STYLE_ASSIGNMENT((#44,#49));
#44=SURFACE_STYLE_USAGE(.BOTH.,#45);
#45=SURFACE_SIDE_STYLE('',(#46));
#46=SURFACE_STYLE_FILL_AREA(#47);
#47=FILL_AREA_STYLE('',(#48));
#48=FILL_AREA_STYLE_COLOUR('',#50);
#49=CURVE_STYLE('',#51,POSITIVE_LENGTH_MEASURE(0.1),#50);
#50=COLOUR_RGB('Tan',0.784,0.686,0.51);
#51=DRAUGHTING_PRE_DEFINED_CURVE_FONT('continuous');
#52=PRESENTATION_STYLE_ASSIGNMENT((#53,#58));
#53=SURFACE_STYLE_USAGE(.BOTH.,#54);
#54=SURFACE_SIDE_STYLE('',(#55));
#55=SURFACE_STYLE_FILL_AREA(#56);
#56=FILL_AREA_STYLE('',(#57));
#57=FILL_AREA_STYLE_COLOUR('',#59);
#58=CURVE_STYLE('',#60,POSITIVE_LENGTH_MEASURE(0.1),#59);
#59=COLOUR_RGB('Pin1Wrap',0.98,0.706,0.176);
#60=DRAUGHTING_PRE_DEFINED_CURVE_FONT('continuous');
#61=PRESENTATION_STYLE_ASSIGNMENT((#62,#67));
#62=SURFACE_STYLE_USAGE(.BOTH.,#63);
#63=SURFACE_SIDE_STYLE('',(#64));
#64=SURFACE_STYLE_FILL_AREA(#65);
#65=FILL_AREA_STYLE('',(#66));
#66=FILL_AREA_STYLE_COLOUR('',#68);
#67=CURVE_STYLE('',#69,POSITIVE_LENGTH_MEASURE(0.1),#68);
#68=COLOUR_RGB('HeatTab',0.588,0.588,0.588);
#69=DRAUGHTING_PRE_DEFINED_CURVE_FONT('continuous');
#71=MANIFOLD_SOLID_BREP($,#72);
#72=CLOSED_SHELL('',(#74,#123,#172,#221,#270,#319));
#73=STYLED_ITEM('',(#43),#74);
#74=ADVANCED_FACE('',(#80),#75,.T.);
#75=PLANE('',#76);
#76=AXIS2_PLACEMENT_3D('',#77,#78,#79);
#77=CARTESIAN_POINT('',(-11.401,-4.254,0.106));
#78=DIRECTION('',(0.0,-1.0,0.0));
#79=DIRECTION('',(0.,0.,1.));
#80=FACE_OUTER_BOUND('',#81,.T.);
#81=EDGE_LOOP('',(#82,#92,#102,#112));
#85=CARTESIAN_POINT('',(11.401,-4.254,0.106));
#84=VERTEX_POINT('',#85);
#87=CARTESIAN_POINT('',(-11.401,-4.254,0.106));
#86=VERTEX_POINT('',#87);
#83=EDGE_CURVE('',#84,#86,#88,.T.);
#88=LINE('',#85,#90);
#90=VECTOR('',#91,22.8012171428571);
#91=DIRECTION('',(-1.0,0.0,0.0));
#82=ORIENTED_EDGE('',*,*,#83,.F.);
#95=CARTESIAN_POINT('',(11.401,-4.254,2.108));
#94=VERTEX_POINT('',#95);
#93=EDGE_CURVE('',#94,#84,#98,.T.);
#98=LINE('',#95,#100);
#100=VECTOR('',#101,2.00260857142857);
#101=DIRECTION('',(0.0,0.0,-1.0));
#92=ORIENTED_EDGE('',*,*,#93,.F.);
#105=CARTESIAN_POINT('',(-11.401,-4.254,2.108));
#104=VERTEX_POINT('',#105);
#103=EDGE_CURVE('',#104,#94,#108,.T.);
#108=LINE('',#105,#110);
#110=VECTOR('',#111,22.8012171428571);
#111=DIRECTION('',(1.0,0.0,0.0));
#102=ORIENTED_EDGE('',*,*,#103,.F.);
#113=EDGE_CURVE('',#86,#104,#118,.T.);
#118=LINE('',#87,#120);
#120=VECTOR('',#121,2.00260857142857);
#121=DIRECTION('',(0.0,0.0,1.0));
#112=ORIENTED_EDGE('',*,*,#113,.F.);
#122=STYLED_ITEM('',(#43),#123);
#123=ADVANCED_FACE('',(#129),#124,.T.);
#124=PLANE('',#125);
#125=AXIS2_PLACEMENT_3D('',#126,#127,#128);
#126=CARTESIAN_POINT('',(11.401,-4.254,0.106));
#127=DIRECTION('',(1.0,0.0,0.0));
#128=DIRECTION('',(0.,0.,1.));
#129=FACE_OUTER_BOUND('',#130,.T.);
#130=EDGE_LOOP('',(#131,#141,#151,#161));
#134=CARTESIAN_POINT('',(11.401,4.254,0.106));
#133=VERTEX_POINT('',#134);
#132=EDGE_CURVE('',#133,#84,#137,.T.);
#137=LINE('',#134,#139);
#139=VECTOR('',#140,8.509);
#140=DIRECTION('',(0.0,-1.0,0.0));
#131=ORIENTED_EDGE('',*,*,#132,.F.);
#144=CARTESIAN_POINT('',(11.401,4.254,2.108));
#143=VERTEX_POINT('',#144);
#142=EDGE_CURVE('',#143,#133,#147,.T.);
#147=LINE('',#144,#149);
#149=VECTOR('',#150,2.00260857142857);
#150=DIRECTION('',(0.0,0.0,-1.0));
#141=ORIENTED_EDGE('',*,*,#142,.F.);
#152=EDGE_CURVE('',#94,#143,#157,.T.);
#157=LINE('',#95,#159);
#159=VECTOR('',#160,8.509);
#160=DIRECTION('',(0.0,1.0,0.0));
#151=ORIENTED_EDGE('',*,*,#152,.F.);
#161=ORIENTED_EDGE('',*,*,#93,.T.);
#171=STYLED_ITEM('',(#43),#172);
#172=ADVANCED_FACE('',(#178),#173,.T.);
#173=PLANE('',#174);
#174=AXIS2_PLACEMENT_3D('',#175,#176,#177);
#175=CARTESIAN_POINT('',(11.401,4.254,0.106));
#176=DIRECTION('',(0.0,1.0,0.0));
#177=DIRECTION('',(0.,0.,1.));
#178=FACE_OUTER_BOUND('',#179,.T.);
#179=EDGE_LOOP('',(#180,#190,#200,#210));
#183=CARTESIAN_POINT('',(-11.401,4.254,0.106));
#182=VERTEX_POINT('',#183);
#181=EDGE_CURVE('',#182,#133,#186,.T.);
#186=LINE('',#183,#188);
#188=VECTOR('',#189,22.8012171428571);
#189=DIRECTION('',(1.0,0.0,0.0));
#180=ORIENTED_EDGE('',*,*,#181,.F.);
#193=CARTESIAN_POINT('',(-11.401,4.254,2.108));
#192=VERTEX_POINT('',#193);
#191=EDGE_CURVE('',#192,#182,#196,.T.);
#196=LINE('',#193,#198);
#198=VECTOR('',#199,2.00260857142857);
#199=DIRECTION('',(0.0,0.0,-1.0));
#190=ORIENTED_EDGE('',*,*,#191,.F.);
#201=EDGE_CURVE('',#143,#192,#206,.T.);
#206=LINE('',#144,#208);
#208=VECTOR('',#209,22.8012171428571);
#209=DIRECTION('',(-1.0,0.0,0.0));
#200=ORIENTED_EDGE('',*,*,#201,.F.);
#210=ORIENTED_EDGE('',*,*,#142,.T.);
#220=STYLED_ITEM('',(#43),#221);
#221=ADVANCED_FACE('',(#227),#222,.T.);
#222=PLANE('',#223);
#223=AXIS2_PLACEMENT_3D('',#224,#225,#226);
#224=CARTESIAN_POINT('',(-11.401,4.254,0.106));
#225=DIRECTION('',(-1.0,0.0,0.0));
#226=DIRECTION('',(0.,0.,1.));
#227=FACE_OUTER_BOUND('',#228,.T.);
#228=EDGE_LOOP('',(#229,#239,#249,#259));
#230=EDGE_CURVE('',#86,#182,#235,.T.);
#235=LINE('',#87,#237);
#237=VECTOR('',#238,8.509);
#238=DIRECTION('',(0.0,1.0,0.0));
#229=ORIENTED_EDGE('',*,*,#230,.F.);
#239=ORIENTED_EDGE('',*,*,#113,.T.);
#250=EDGE_CURVE('',#192,#104,#255,.T.);
#255=LINE('',#193,#257);
#257=VECTOR('',#258,8.509);
#258=DIRECTION('',(0.0,-1.0,0.0));
#249=ORIENTED_EDGE('',*,*,#250,.F.);
#259=ORIENTED_EDGE('',*,*,#191,.T.);
#269=STYLED_ITEM('',(#43),#270);
#270=ADVANCED_FACE('',(#276),#271,.T.);
#271=PLANE('',#272);
#272=AXIS2_PLACEMENT_3D('',#273,#274,#275);
#273=CARTESIAN_POINT('',(-11.401,4.254,0.106));
#274=DIRECTION('',(0.0,0.0,-1.0));
#275=DIRECTION('',(0.,1.,0.));
#276=FACE_OUTER_BOUND('',#277,.T.);
#277=EDGE_LOOP('',(#278,#288,#298,#308));
#278=ORIENTED_EDGE('',*,*,#181,.T.);
#288=ORIENTED_EDGE('',*,*,#132,.T.);
#298=ORIENTED_EDGE('',*,*,#83,.T.);
#308=ORIENTED_EDGE('',*,*,#230,.T.);
#318=STYLED_ITEM('',(#43),#319);
#319=ADVANCED_FACE('',(#325),#320,.T.);
#320=PLANE('',#321);
#321=AXIS2_PLACEMENT_3D('',#322,#323,#324);
#322=CARTESIAN_POINT('',(-11.401,-4.254,2.108));
#323=DIRECTION('',(0.0,0.0,1.0));
#324=DIRECTION('',(0.,1.,0.));
#325=FACE_OUTER_BOUND('',#326,.T.);
#326=EDGE_LOOP('',(#327,#337,#347,#357));
#327=ORIENTED_EDGE('',*,*,#103,.T.);
#337=ORIENTED_EDGE('',*,*,#152,.T.);
#347=ORIENTED_EDGE('',*,*,#201,.T.);
#357=ORIENTED_EDGE('',*,*,#250,.T.);
#367=MANIFOLD_SOLID_BREP($,#368);
#368=CLOSED_SHELL('',(#370,#419,#468,#517,#566,#615));
#369=STYLED_ITEM('',(#52),#370);
#370=ADVANCED_FACE('',(#376),#371,.T.);
#371=PLANE('',#372);
#372=AXIS2_PLACEMENT_3D('',#373,#374,#375);
#373=CARTESIAN_POINT('',(-9.12,-4.242,2.108));
#374=DIRECTION('',(0.0,-1.0,0.0));
#375=DIRECTION('',(0.,0.,1.));
#376=FACE_OUTER_BOUND('',#377,.T.);
#377=EDGE_LOOP('',(#378,#388,#398,#408));
#381=CARTESIAN_POINT('',(-6.84,-4.242,2.108));
#380=VERTEX_POINT('',#381);
#383=CARTESIAN_POINT('',(-9.12,-4.242,2.108));
#382=VERTEX_POINT('',#383);
#379=EDGE_CURVE('',#380,#382,#384,.T.);
#384=LINE('',#381,#386);
#386=VECTOR('',#387,2.28012171428571);
#387=DIRECTION('',(-1.0,0.0,0.0));
#378=ORIENTED_EDGE('',*,*,#379,.F.);
#391=CARTESIAN_POINT('',(-6.84,-4.242,2.111));
#390=VERTEX_POINT('',#391);
#389=EDGE_CURVE('',#390,#380,#394,.T.);
#394=LINE('',#391,#396);
#396=VECTOR('',#397,2.53999999999986E-03);
#397=DIRECTION('',(0.0,0.0,-1.0));
#388=ORIENTED_EDGE('',*,*,#389,.F.);
#401=CARTESIAN_POINT('',(-9.12,-4.242,2.111));
#400=VERTEX_POINT('',#401);
#399=EDGE_CURVE('',#400,#390,#404,.T.);
#404=LINE('',#401,#406);
#406=VECTOR('',#407,2.28012171428571);
#407=DIRECTION('',(1.0,0.0,0.0));
#398=ORIENTED_EDGE('',*,*,#399,.F.);
#409=EDGE_CURVE('',#382,#400,#414,.T.);
#414=LINE('',#383,#416);
#416=VECTOR('',#417,2.53999999999986E-03);
#417=DIRECTION('',(0.0,0.0,1.0));
#408=ORIENTED_EDGE('',*,*,#409,.F.);
#418=STYLED_ITEM('',(#52),#419);
#419=ADVANCED_FACE('',(#425),#420,.T.);
#420=PLANE('',#421);
#421=AXIS2_PLACEMENT_3D('',#422,#423,#424);
#422=CARTESIAN_POINT('',(-6.84,-4.242,2.108));
#423=DIRECTION('',(1.0,0.0,0.0));
#424=DIRECTION('',(0.,0.,1.));
#425=FACE_OUTER_BOUND('',#426,.T.);
#426=EDGE_LOOP('',(#427,#437,#447,#457));
#430=CARTESIAN_POINT('',(-6.84,4.242,2.108));
#429=VERTEX_POINT('',#430);
#428=EDGE_CURVE('',#429,#380,#433,.T.);
#433=LINE('',#430,#435);
#435=VECTOR('',#436,8.4836);
#436=DIRECTION('',(0.0,-1.0,0.0));
#427=ORIENTED_EDGE('',*,*,#428,.F.);
#440=CARTESIAN_POINT('',(-6.84,4.242,2.111));
#439=VERTEX_POINT('',#440);
#438=EDGE_CURVE('',#439,#429,#443,.T.);
#443=LINE('',#440,#445);
#445=VECTOR('',#446,2.53999999999986E-03);
#446=DIRECTION('',(0.0,0.0,-1.0));
#437=ORIENTED_EDGE('',*,*,#438,.F.);
#448=EDGE_CURVE('',#390,#439,#453,.T.);
#453=LINE('',#391,#455);
#455=VECTOR('',#456,8.4836);
#456=DIRECTION('',(0.0,1.0,0.0));
#447=ORIENTED_EDGE('',*,*,#448,.F.);
#457=ORIENTED_EDGE('',*,*,#389,.T.);
#467=STYLED_ITEM('',(#52),#468);
#468=ADVANCED_FACE('',(#474),#469,.T.);
#469=PLANE('',#470);
#470=AXIS2_PLACEMENT_3D('',#471,#472,#473);
#471=CARTESIAN_POINT('',(-6.84,4.242,2.108));
#472=DIRECTION('',(0.0,1.0,0.0));
#473=DIRECTION('',(0.,0.,1.));
#474=FACE_OUTER_BOUND('',#475,.T.);
#475=EDGE_LOOP('',(#476,#486,#496,#506));
#479=CARTESIAN_POINT('',(-9.12,4.242,2.108));
#478=VERTEX_POINT('',#479);
#477=EDGE_CURVE('',#478,#429,#482,.T.);
#482=LINE('',#479,#484);
#484=VECTOR('',#485,2.28012171428571);
#485=DIRECTION('',(1.0,0.0,0.0));
#476=ORIENTED_EDGE('',*,*,#477,.F.);
#489=CARTESIAN_POINT('',(-9.12,4.242,2.111));
#488=VERTEX_POINT('',#489);
#487=EDGE_CURVE('',#488,#478,#492,.T.);
#492=LINE('',#489,#494);
#494=VECTOR('',#495,2.53999999999986E-03);
#495=DIRECTION('',(0.0,0.0,-1.0));
#486=ORIENTED_EDGE('',*,*,#487,.F.);
#497=EDGE_CURVE('',#439,#488,#502,.T.);
#502=LINE('',#440,#504);
#504=VECTOR('',#505,2.28012171428571);
#505=DIRECTION('',(-1.0,0.0,0.0));
#496=ORIENTED_EDGE('',*,*,#497,.F.);
#506=ORIENTED_EDGE('',*,*,#438,.T.);
#516=STYLED_ITEM('',(#52),#517);
#517=ADVANCED_FACE('',(#523),#518,.T.);
#518=PLANE('',#519);
#519=AXIS2_PLACEMENT_3D('',#520,#521,#522);
#520=CARTESIAN_POINT('',(-9.12,4.242,2.108));
#521=DIRECTION('',(-1.0,0.0,0.0));
#522=DIRECTION('',(0.,0.,1.));
#523=FACE_OUTER_BOUND('',#524,.T.);
#524=EDGE_LOOP('',(#525,#535,#545,#555));
#526=EDGE_CURVE('',#382,#478,#531,.T.);
#531=LINE('',#383,#533);
#533=VECTOR('',#534,8.4836);
#534=DIRECTION('',(0.0,1.0,0.0));
#525=ORIENTED_EDGE('',*,*,#526,.F.);
#535=ORIENTED_EDGE('',*,*,#409,.T.);
#546=EDGE_CURVE('',#488,#400,#551,.T.);
#551=LINE('',#489,#553);
#553=VECTOR('',#554,8.4836);
#554=DIRECTION('',(0.0,-1.0,0.0));
#545=ORIENTED_EDGE('',*,*,#546,.F.);
#555=ORIENTED_EDGE('',*,*,#487,.T.);
#565=STYLED_ITEM('',(#52),#566);
#566=ADVANCED_FACE('',(#572),#567,.T.);
#567=PLANE('',#568);
#568=AXIS2_PLACEMENT_3D('',#569,#570,#571);
#569=CARTESIAN_POINT('',(-9.12,4.242,2.108));
#570=DIRECTION('',(0.0,0.0,-1.0));
#571=DIRECTION('',(0.,1.,0.));
#572=FACE_OUTER_BOUND('',#573,.T.);
#573=EDGE_LOOP('',(#574,#584,#594,#604));
#574=ORIENTED_EDGE('',*,*,#477,.T.);
#584=ORIENTED_EDGE('',*,*,#428,.T.);
#594=ORIENTED_EDGE('',*,*,#379,.T.);
#604=ORIENTED_EDGE('',*,*,#526,.T.);
#614=STYLED_ITEM('',(#52),#615);
#615=ADVANCED_FACE('',(#621),#616,.T.);
#616=PLANE('',#617);
#617=AXIS2_PLACEMENT_3D('',#618,#619,#620);
#618=CARTESIAN_POINT('',(-9.12,-4.242,2.111));
#619=DIRECTION('',(0.0,0.0,1.0));
#620=DIRECTION('',(0.,1.,0.));
#621=FACE_OUTER_BOUND('',#622,.T.);
#622=EDGE_LOOP('',(#623,#633,#643,#653));
#623=ORIENTED_EDGE('',*,*,#399,.T.);
#633=ORIENTED_EDGE('',*,*,#448,.T.);
#643=ORIENTED_EDGE('',*,*,#497,.T.);
#653=ORIENTED_EDGE('',*,*,#546,.T.);
#664=MANIFOLD_SOLID_BREP($,#665);
#665=CLOSED_SHELL('',(#667,#736,#805,#854,#903,#952,#1001,#1050));
#666=STYLED_ITEM('',(#34),#667);
#667=ADVANCED_FACE('',(#673),#668,.T.);
#668=PLANE('',#669);
#669=AXIS2_PLACEMENT_3D('',#670,#671,#672);
#670=CARTESIAN_POINT('',(11.506,3.696,0.0));
#671=DIRECTION('',(0.0,1.0,0.0));
#672=DIRECTION('',(0.,0.,1.));
#673=FACE_OUTER_BOUND('',#674,.T.);
#674=EDGE_LOOP('',(#675,#685,#695,#705,#715,#725));
#678=CARTESIAN_POINT('',(9.5,3.696,0.0));
#677=VERTEX_POINT('',#678);
#680=CARTESIAN_POINT('',(11.506,3.696,0.0));
#679=VERTEX_POINT('',#680);
#676=EDGE_CURVE('',#677,#679,#681,.T.);
#681=LINE('',#678,#683);
#683=VECTOR('',#684,2.0066);
#684=DIRECTION('',(1.0,0.0,0.0));
#675=ORIENTED_EDGE('',*,*,#676,.F.);
#688=CARTESIAN_POINT('',(9.5,3.696,0.106));
#687=VERTEX_POINT('',#688);
#686=EDGE_CURVE('',#687,#677,#691,.T.);
#691=LINE('',#688,#693);
#693=VECTOR('',#694,0.105591428571429);
#694=DIRECTION('',(0.0,0.0,-1.0));
#685=ORIENTED_EDGE('',*,*,#686,.F.);
#698=CARTESIAN_POINT('',(11.401,3.696,0.106));
#697=VERTEX_POINT('',#698);
#696=EDGE_CURVE('',#697,#687,#701,.T.);
#701=LINE('',#698,#703);
#703=VECTOR('',#704,1.90100857142857);
#704=DIRECTION('',(-1.0,0.0,0.0));
#695=ORIENTED_EDGE('',*,*,#696,.F.);
#708=CARTESIAN_POINT('',(11.401,3.696,1.054));
#707=VERTEX_POINT('',#708);
#706=EDGE_CURVE('',#707,#697,#711,.T.);
#711=LINE('',#708,#713);
#713=VECTOR('',#714,0.948508571428571);
#714=DIRECTION('',(0.0,0.0,-1.0));
#705=ORIENTED_EDGE('',*,*,#706,.F.);
#718=CARTESIAN_POINT('',(11.506,3.696,1.054));
#717=VERTEX_POINT('',#718);
#716=EDGE_CURVE('',#717,#707,#721,.T.);
#721=LINE('',#718,#723);
#723=VECTOR('',#724,0.105591428571428);
#724=DIRECTION('',(-1.0,0.0,0.0));
#715=ORIENTED_EDGE('',*,*,#716,.F.);
#726=EDGE_CURVE('',#679,#717,#731,.T.);
#731=LINE('',#680,#733);
#733=VECTOR('',#734,1.0541);
#734=DIRECTION('',(0.0,0.0,1.0));
#725=ORIENTED_EDGE('',*,*,#726,.F.);
#735=STYLED_ITEM('',(#34),#736);
#736=ADVANCED_FACE('',(#742),#737,.T.);
#737=PLANE('',#738);
#738=AXIS2_PLACEMENT_3D('',#739,#740,#741);
#739=CARTESIAN_POINT('',(9.5,-3.696,0.0));
#740=DIRECTION('',(0.0,-1.0,0.0));
#741=DIRECTION('',(0.,0.,1.));
#742=FACE_OUTER_BOUND('',#743,.T.);
#743=EDGE_LOOP('',(#744,#754,#764,#774,#784,#794));
#747=CARTESIAN_POINT('',(11.506,-3.696,0.0));
#746=VERTEX_POINT('',#747);
#749=CARTESIAN_POINT('',(9.5,-3.696,0.0));
#748=VERTEX_POINT('',#749);
#745=EDGE_CURVE('',#746,#748,#750,.T.);
#750=LINE('',#747,#752);
#752=VECTOR('',#753,2.0066);
#753=DIRECTION('',(-1.0,0.0,0.0));
#744=ORIENTED_EDGE('',*,*,#745,.F.);
#757=CARTESIAN_POINT('',(11.506,-3.696,1.054));
#756=VERTEX_POINT('',#757);
#755=EDGE_CURVE('',#756,#746,#760,.T.);
#760=LINE('',#757,#762);
#762=VECTOR('',#763,1.0541);
#763=DIRECTION('',(0.0,0.0,-1.0));
#754=ORIENTED_EDGE('',*,*,#755,.F.);
#767=CARTESIAN_POINT('',(11.401,-3.696,1.054));
#766=VERTEX_POINT('',#767);
#765=EDGE_CURVE('',#766,#756,#770,.T.);
#770=LINE('',#767,#772);
#772=VECTOR('',#773,0.105591428571428);
#773=DIRECTION('',(1.0,0.0,0.0));
#764=ORIENTED_EDGE('',*,*,#765,.F.);
#777=CARTESIAN_POINT('',(11.401,-3.696,0.106));
#776=VERTEX_POINT('',#777);
#775=EDGE_CURVE('',#776,#766,#780,.T.);
#780=LINE('',#777,#782);
#782=VECTOR('',#783,0.948508571428571);
#783=DIRECTION('',(0.0,0.0,1.0));
#774=ORIENTED_EDGE('',*,*,#775,.F.);
#787=CARTESIAN_POINT('',(9.5,-3.696,0.106));
#786=VERTEX_POINT('',#787);
#785=EDGE_CURVE('',#786,#776,#790,.T.);
#790=LINE('',#787,#792);
#792=VECTOR('',#793,1.90100857142857);
#793=DIRECTION('',(1.0,0.0,0.0));
#784=ORIENTED_EDGE('',*,*,#785,.F.);
#795=EDGE_CURVE('',#748,#786,#800,.T.);
#800=LINE('',#749,#802);
#802=VECTOR('',#803,0.105591428571429);
#803=DIRECTION('',(0.0,0.0,1.0));
#794=ORIENTED_EDGE('',*,*,#795,.F.);
#804=STYLED_ITEM('',(#34),#805);
#805=ADVANCED_FACE('',(#811),#806,.T.);
#806=PLANE('',#807);
#807=AXIS2_PLACEMENT_3D('',#808,#809,#810);
#808=CARTESIAN_POINT('',(11.506,3.696,1.054));
#809=DIRECTION('',(0.0,0.0,1.0));
#810=DIRECTION('',(0.,1.,0.));
#811=FACE_OUTER_BOUND('',#812,.T.);
#812=EDGE_LOOP('',(#813,#823,#833,#843));
#813=ORIENTED_EDGE('',*,*,#716,.T.);
#824=EDGE_CURVE('',#766,#707,#829,.T.);
#829=LINE('',#767,#831);
#831=VECTOR('',#832,7.3914);
#832=DIRECTION('',(0.0,1.0,0.0));
#823=ORIENTED_EDGE('',*,*,#824,.F.);
#833=ORIENTED_EDGE('',*,*,#765,.T.);
#844=EDGE_CURVE('',#717,#756,#849,.T.);
#849=LINE('',#718,#851);
#851=VECTOR('',#852,7.3914);
#852=DIRECTION('',(0.0,-1.0,0.0));
#843=ORIENTED_EDGE('',*,*,#844,.F.);
#853=STYLED_ITEM('',(#34),#854);
#854=ADVANCED_FACE('',(#860),#855,.T.);
#855=PLANE('',#856);
#856=AXIS2_PLACEMENT_3D('',#857,#858,#859);
#857=CARTESIAN_POINT('',(11.401,3.696,0.106));
#858=DIRECTION('',(0.0,0.0,1.0));
#859=DIRECTION('',(0.,1.,0.));
#860=FACE_OUTER_BOUND('',#861,.T.);
#861=EDGE_LOOP('',(#862,#872,#882,#892));
#862=ORIENTED_EDGE('',*,*,#696,.T.);
#873=EDGE_CURVE('',#786,#687,#878,.T.);
#878=LINE('',#787,#880);
#880=VECTOR('',#881,7.3914);
#881=DIRECTION('',(0.0,1.0,0.0));
#872=ORIENTED_EDGE('',*,*,#873,.F.);
#882=ORIENTED_EDGE('',*,*,#785,.T.);
#893=EDGE_CURVE('',#697,#776,#898,.T.);
#898=LINE('',#698,#900);
#900=VECTOR('',#901,7.3914);
#901=DIRECTION('',(0.0,-1.0,0.0));
#892=ORIENTED_EDGE('',*,*,#893,.F.);
#902=STYLED_ITEM('',(#34),#903);
#903=ADVANCED_FACE('',(#909),#904,.T.);
#904=PLANE('',#905);
#905=AXIS2_PLACEMENT_3D('',#906,#907,#908);
#906=CARTESIAN_POINT('',(11.506,-3.696,0.0));
#907=DIRECTION('',(1.0,0.0,0.0));
#908=DIRECTION('',(0.,0.,1.));
#909=FACE_OUTER_BOUND('',#910,.T.);
#910=EDGE_LOOP('',(#911,#921,#931,#941));
#912=EDGE_CURVE('',#679,#746,#917,.T.);
#917=LINE('',#680,#919);
#919=VECTOR('',#920,7.3914);
#920=DIRECTION('',(0.0,-1.0,0.0));
#911=ORIENTED_EDGE('',*,*,#912,.F.);
#921=ORIENTED_EDGE('',*,*,#726,.T.);
#931=ORIENTED_EDGE('',*,*,#844,.T.);
#941=ORIENTED_EDGE('',*,*,#755,.T.);
#951=STYLED_ITEM('',(#34),#952);
#952=ADVANCED_FACE('',(#958),#953,.T.);
#953=PLANE('',#954);
#954=AXIS2_PLACEMENT_3D('',#955,#956,#957);
#955=CARTESIAN_POINT('',(9.5,3.696,0.0));
#956=DIRECTION('',(-1.0,0.0,0.0));
#957=DIRECTION('',(0.,0.,1.));
#958=FACE_OUTER_BOUND('',#959,.T.);
#959=EDGE_LOOP('',(#960,#970,#980,#990));
#961=EDGE_CURVE('',#748,#677,#966,.T.);
#966=LINE('',#749,#968);
#968=VECTOR('',#969,7.3914);
#969=DIRECTION('',(0.0,1.0,0.0));
#960=ORIENTED_EDGE('',*,*,#961,.F.);
#970=ORIENTED_EDGE('',*,*,#795,.T.);
#980=ORIENTED_EDGE('',*,*,#873,.T.);
#990=ORIENTED_EDGE('',*,*,#686,.T.);
#1000=STYLED_ITEM('',(#34),#1001);
#1001=ADVANCED_FACE('',(#1007),#1002,.T.);
#1002=PLANE('',#1003);
#1003=AXIS2_PLACEMENT_3D('',#1004,#1005,#1006);
#1004=CARTESIAN_POINT('',(11.401,3.696,0.106));
#1005=DIRECTION('',(-1.0,0.0,0.0));
#1006=DIRECTION('',(0.,0.,1.));
#1007=FACE_OUTER_BOUND('',#1008,.T.);
#1008=EDGE_LOOP('',(#1009,#1019,#1029,#1039));
#1009=ORIENTED_EDGE('',*,*,#893,.T.);
#1019=ORIENTED_EDGE('',*,*,#775,.T.);
#1029=ORIENTED_EDGE('',*,*,#824,.T.);
#1039=ORIENTED_EDGE('',*,*,#706,.T.);
#1049=STYLED_ITEM('',(#34),#1050);
#1050=ADVANCED_FACE('',(#1056),#1051,.T.);
#1051=PLANE('',#1052);
#1052=AXIS2_PLACEMENT_3D('',#1053,#1054,#1055);
#1053=CARTESIAN_POINT('',(11.506,-3.696,0.0));
#1054=DIRECTION('',(0.0,0.0,-1.0));
#1055=DIRECTION('',(0.,1.,0.));
#1056=FACE_OUTER_BOUND('',#1057,.T.);
#1057=EDGE_LOOP('',(#1058,#1068,#1078,#1088));
#1058=ORIENTED_EDGE('',*,*,#745,.T.);
#1068=ORIENTED_EDGE('',*,*,#961,.T.);
#1078=ORIENTED_EDGE('',*,*,#676,.T.);
#1088=ORIENTED_EDGE('',*,*,#912,.T.);
#1098=MANIFOLD_SOLID_BREP($,#1099);
#1099=CLOSED_SHELL('',(#1101,#1170,#1239,#1288,#1337,#1386,#1435,#1484));
#1100=STYLED_ITEM('',(#34),#1101);
#1101=ADVANCED_FACE('',(#1107),#1102,.T.);
#1102=PLANE('',#1103);
#1103=AXIS2_PLACEMENT_3D('',#1104,#1105,#1106);
#1104=CARTESIAN_POINT('',(-11.506,-3.696,0.0));
#1105=DIRECTION('',(0.0,-1.0,0.0));
#1106=DIRECTION('',(0.,0.,1.));
#1107=FACE_OUTER_BOUND('',#1108,.T.);
#1108=EDGE_LOOP('',(#1109,#1119,#1129,#1139,#1149,#1159));
#1112=CARTESIAN_POINT('',(-9.5,-3.696,0.0));
#1111=VERTEX_POINT('',#1112);
#1114=CARTESIAN_POINT('',(-11.506,-3.696,0.0));
#1113=VERTEX_POINT('',#1114);
#1110=EDGE_CURVE('',#1111,#1113,#1115,.T.);
#1115=LINE('',#1112,#1117);
#1117=VECTOR('',#1118,2.0066);
#1118=DIRECTION('',(-1.0,0.0,0.0));
#1109=ORIENTED_EDGE('',*,*,#1110,.F.);
#1122=CARTESIAN_POINT('',(-9.5,-3.696,0.106));
#1121=VERTEX_POINT('',#1122);
#1120=EDGE_CURVE('',#1121,#1111,#1125,.T.);
#1125=LINE('',#1122,#1127);
#1127=VECTOR('',#1128,0.105591428571429);
#1128=DIRECTION('',(0.0,0.0,-1.0));
#1119=ORIENTED_EDGE('',*,*,#1120,.F.);
#1132=CARTESIAN_POINT('',(-11.401,-3.696,0.106));
#1131=VERTEX_POINT('',#1132);
#1130=EDGE_CURVE('',#1131,#1121,#1135,.T.);
#1135=LINE('',#1132,#1137);
#1137=VECTOR('',#1138,1.90100857142857);
#1138=DIRECTION('',(1.0,0.0,0.0));
#1129=ORIENTED_EDGE('',*,*,#1130,.F.);
#1142=CARTESIAN_POINT('',(-11.401,-3.696,1.054));
#1141=VERTEX_POINT('',#1142);
#1140=EDGE_CURVE('',#1141,#1131,#1145,.T.);
#1145=LINE('',#1142,#1147);
#1147=VECTOR('',#1148,0.948508571428571);
#1148=DIRECTION('',(0.0,0.0,-1.0));
#1139=ORIENTED_EDGE('',*,*,#1140,.F.);
#1152=CARTESIAN_POINT('',(-11.506,-3.696,1.054));
#1151=VERTEX_POINT('',#1152);
#1150=EDGE_CURVE('',#1151,#1141,#1155,.T.);
#1155=LINE('',#1152,#1157);
#1157=VECTOR('',#1158,0.105591428571428);
#1158=DIRECTION('',(1.0,0.0,0.0));
#1149=ORIENTED_EDGE('',*,*,#1150,.F.);
#1160=EDGE_CURVE('',#1113,#1151,#1165,.T.);
#1165=LINE('',#1114,#1167);
#1167=VECTOR('',#1168,1.0541);
#1168=DIRECTION('',(0.0,0.0,1.0));
#1159=ORIENTED_EDGE('',*,*,#1160,.F.);
#1169=STYLED_ITEM('',(#34),#1170);
#1170=ADVANCED_FACE('',(#1176),#1171,.T.);
#1171=PLANE('',#1172);
#1172=AXIS2_PLACEMENT_3D('',#1173,#1174,#1175);
#1173=CARTESIAN_POINT('',(-9.5,3.696,0.0));
#1174=DIRECTION('',(0.0,1.0,0.0));
#1175=DIRECTION('',(0.,0.,1.));
#1176=FACE_OUTER_BOUND('',#1177,.T.);
#1177=EDGE_LOOP('',(#1178,#1188,#1198,#1208,#1218,#1228));
#1181=CARTESIAN_POINT('',(-11.506,3.696,0.0));
#1180=VERTEX_POINT('',#1181);
#1183=CARTESIAN_POINT('',(-9.5,3.696,0.0));
#1182=VERTEX_POINT('',#1183);
#1179=EDGE_CURVE('',#1180,#1182,#1184,.T.);
#1184=LINE('',#1181,#1186);
#1186=VECTOR('',#1187,2.0066);
#1187=DIRECTION('',(1.0,0.0,0.0));
#1178=ORIENTED_EDGE('',*,*,#1179,.F.);
#1191=CARTESIAN_POINT('',(-11.506,3.696,1.054));
#1190=VERTEX_POINT('',#1191);
#1189=EDGE_CURVE('',#1190,#1180,#1194,.T.);
#1194=LINE('',#1191,#1196);
#1196=VECTOR('',#1197,1.0541);
#1197=DIRECTION('',(0.0,0.0,-1.0));
#1188=ORIENTED_EDGE('',*,*,#1189,.F.);
#1201=CARTESIAN_POINT('',(-11.401,3.696,1.054));
#1200=VERTEX_POINT('',#1201);
#1199=EDGE_CURVE('',#1200,#1190,#1204,.T.);
#1204=LINE('',#1201,#1206);
#1206=VECTOR('',#1207,0.105591428571428);
#1207=DIRECTION('',(-1.0,0.0,0.0));
#1198=ORIENTED_EDGE('',*,*,#1199,.F.);
#1211=CARTESIAN_POINT('',(-11.401,3.696,0.106));
#1210=VERTEX_POINT('',#1211);
#1209=EDGE_CURVE('',#1210,#1200,#1214,.T.);
#1214=LINE('',#1211,#1216);
#1216=VECTOR('',#1217,0.948508571428571);
#1217=DIRECTION('',(0.0,0.0,1.0));
#1208=ORIENTED_EDGE('',*,*,#1209,.F.);
#1221=CARTESIAN_POINT('',(-9.5,3.696,0.106));
#1220=VERTEX_POINT('',#1221);
#1219=EDGE_CURVE('',#1220,#1210,#1224,.T.);
#1224=LINE('',#1221,#1226);
#1226=VECTOR('',#1227,1.90100857142857);
#1227=DIRECTION('',(-1.0,0.0,0.0));
#1218=ORIENTED_EDGE('',*,*,#1219,.F.);
#1229=EDGE_CURVE('',#1182,#1220,#1234,.T.);
#1234=LINE('',#1183,#1236);
#1236=VECTOR('',#1237,0.105591428571429);
#1237=DIRECTION('',(0.0,0.0,1.0));
#1228=ORIENTED_EDGE('',*,*,#1229,.F.);
#1238=STYLED_ITEM('',(#34),#1239);
#1239=ADVANCED_FACE('',(#1245),#1240,.T.);
#1240=PLANE('',#1241);
#1241=AXIS2_PLACEMENT_3D('',#1242,#1243,#1244);
#1242=CARTESIAN_POINT('',(-11.506,-3.696,1.054));
#1243=DIRECTION('',(0.0,0.0,1.0));
#1244=DIRECTION('',(0.,1.,0.));
#1245=FACE_OUTER_BOUND('',#1246,.T.);
#1246=EDGE_LOOP('',(#1247,#1257,#1267,#1277));
#1247=ORIENTED_EDGE('',*,*,#1150,.T.);
#1258=EDGE_CURVE('',#1200,#1141,#1263,.T.);
#1263=LINE('',#1201,#1265);
#1265=VECTOR('',#1266,7.3914);
#1266=DIRECTION('',(0.0,-1.0,0.0));
#1257=ORIENTED_EDGE('',*,*,#1258,.F.);
#1267=ORIENTED_EDGE('',*,*,#1199,.T.);
#1278=EDGE_CURVE('',#1151,#1190,#1283,.T.);
#1283=LINE('',#1152,#1285);
#1285=VECTOR('',#1286,7.3914);
#1286=DIRECTION('',(0.0,1.0,0.0));
#1277=ORIENTED_EDGE('',*,*,#1278,.F.);
#1287=STYLED_ITEM('',(#34),#1288);
#1288=ADVANCED_FACE('',(#1294),#1289,.T.);
#1289=PLANE('',#1290);
#1290=AXIS2_PLACEMENT_3D('',#1291,#1292,#1293);
#1291=CARTESIAN_POINT('',(-11.401,-3.696,0.106));
#1292=DIRECTION('',(0.0,0.0,1.0));
#1293=DIRECTION('',(0.,1.,0.));
#1294=FACE_OUTER_BOUND('',#1295,.T.);
#1295=EDGE_LOOP('',(#1296,#1306,#1316,#1326));
#1296=ORIENTED_EDGE('',*,*,#1130,.T.);
#1307=EDGE_CURVE('',#1220,#1121,#1312,.T.);
#1312=LINE('',#1221,#1314);
#1314=VECTOR('',#1315,7.3914);
#1315=DIRECTION('',(0.0,-1.0,0.0));
#1306=ORIENTED_EDGE('',*,*,#1307,.F.);
#1316=ORIENTED_EDGE('',*,*,#1219,.T.);
#1327=EDGE_CURVE('',#1131,#1210,#1332,.T.);
#1332=LINE('',#1132,#1334);
#1334=VECTOR('',#1335,7.3914);
#1335=DIRECTION('',(0.0,1.0,0.0));
#1326=ORIENTED_EDGE('',*,*,#1327,.F.);
#1336=STYLED_ITEM('',(#34),#1337);
#1337=ADVANCED_FACE('',(#1343),#1338,.T.);
#1338=PLANE('',#1339);
#1339=AXIS2_PLACEMENT_3D('',#1340,#1341,#1342);
#1340=CARTESIAN_POINT('',(-11.506,3.696,0.0));
#1341=DIRECTION('',(-1.0,0.0,0.0));
#1342=DIRECTION('',(0.,0.,1.));
#1343=FACE_OUTER_BOUND('',#1344,.T.);
#1344=EDGE_LOOP('',(#1345,#1355,#1365,#1375));
#1346=EDGE_CURVE('',#1113,#1180,#1351,.T.);
#1351=LINE('',#1114,#1353);
#1353=VECTOR('',#1354,7.3914);
#1354=DIRECTION('',(0.0,1.0,0.0));
#1345=ORIENTED_EDGE('',*,*,#1346,.F.);
#1355=ORIENTED_EDGE('',*,*,#1160,.T.);
#1365=ORIENTED_EDGE('',*,*,#1278,.T.);
#1375=ORIENTED_EDGE('',*,*,#1189,.T.);
#1385=STYLED_ITEM('',(#34),#1386);
#1386=ADVANCED_FACE('',(#1392),#1387,.T.);
#1387=PLANE('',#1388);
#1388=AXIS2_PLACEMENT_3D('',#1389,#1390,#1391);
#1389=CARTESIAN_POINT('',(-9.5,-3.696,0.0));
#1390=DIRECTION('',(1.0,0.0,0.0));
#1391=DIRECTION('',(0.,0.,1.));
#1392=FACE_OUTER_BOUND('',#1393,.T.);
#1393=EDGE_LOOP('',(#1394,#1404,#1414,#1424));
#1395=EDGE_CURVE('',#1182,#1111,#1400,.T.);
#1400=LINE('',#1183,#1402);
#1402=VECTOR('',#1403,7.3914);
#1403=DIRECTION('',(0.0,-1.0,0.0));
#1394=ORIENTED_EDGE('',*,*,#1395,.F.);
#1404=ORIENTED_EDGE('',*,*,#1229,.T.);
#1414=ORIENTED_EDGE('',*,*,#1307,.T.);
#1424=ORIENTED_EDGE('',*,*,#1120,.T.);
#1434=STYLED_ITEM('',(#34),#1435);
#1435=ADVANCED_FACE('',(#1441),#1436,.T.);
#1436=PLANE('',#1437);
#1437=AXIS2_PLACEMENT_3D('',#1438,#1439,#1440);
#1438=CARTESIAN_POINT('',(-11.401,-3.696,0.106));
#1439=DIRECTION('',(1.0,0.0,0.0));
#1440=DIRECTION('',(0.,0.,1.));
#1441=FACE_OUTER_BOUND('',#1442,.T.);
#1442=EDGE_LOOP('',(#1443,#1453,#1463,#1473));
#1443=ORIENTED_EDGE('',*,*,#1327,.T.);
#1453=ORIENTED_EDGE('',*,*,#1209,.T.);
#1463=ORIENTED_EDGE('',*,*,#1258,.T.);
#1473=ORIENTED_EDGE('',*,*,#1140,.T.);
#1483=STYLED_ITEM('',(#34),#1484);
#1484=ADVANCED_FACE('',(#1490),#1485,.T.);
#1485=PLANE('',#1486);
#1486=AXIS2_PLACEMENT_3D('',#1487,#1488,#1489);
#1487=CARTESIAN_POINT('',(-11.506,3.696,0.0));
#1488=DIRECTION('',(0.0,0.0,-1.0));
#1489=DIRECTION('',(0.,1.,0.));
#1490=FACE_OUTER_BOUND('',#1491,.T.);
#1491=EDGE_LOOP('',(#1492,#1502,#1512,#1522));
#1492=ORIENTED_EDGE('',*,*,#1179,.T.);
#1502=ORIENTED_EDGE('',*,*,#1395,.T.);
#1512=ORIENTED_EDGE('',*,*,#1110,.T.);
#1522=ORIENTED_EDGE('',*,*,#1346,.T.);
ENDSEC;
END-ISO-10303-21;
