0
SECTION
2
HEADER
9
$INSUNITS
70
4
9
$ACADVER
1
AC1014
9
$HANDSEED
5
FFFF
0
ENDSEC
0
SECTION
2
TABLES
0
TABLE
2
VPORT
5
8
100
AcDbSymbolTable
0
ENDTAB
0
TABLE
2
LTYPE
5
5
100
AcDbSymbolTable
0
LTYPE
5
14
100
AcDbSymbolTableRecord
100
AcDbLinetypeTableRecord
2
BYBLOCK
70
0
0
LTYPE
5
15
100
AcDbSymbolTableRecord
100
AcDbLinetypeTableRecord
2
BYLAYER
70
0
0
LTYPE
5
16
100
AcDbSymbolTableRecord
100
AcDbLinetypeTableRecord
2
DASHED
70
0
3
Dashed __ __ __ __ __ __ __ __ __ __ __ __ __ _
72
65
73
2
40
0.75
49
0.5
74
0
49
-0.25
74
0
0
ENDTAB
0
TABLE
2
LAYER
5
2
100
AcDbSymbolTable
70
2
0
LAYER
5
50
100
AcDbSymbolTableRecord
100
AcDbLayerTableRecord
2
0
70
0
62
7
6
CONTINUOUS
0
ENDTAB
0
TABLE
2
STYLE
5
3
100
AcDbSymbolTable
70
1
0
STYLE
5
11
100
AcDbSymbolTableRecord
100
AcDbTextStyleTableRecord
2
STANDARD
70
0
0
ENDTAB
0
TABLE
2
VIEW
5
6
100
AcDbSymbolTable
70
0
0
ENDTAB
0
TABLE
2
UCS
5
7
100
AcDbSymbolTable
70
0
0
ENDTAB
0
TABLE
2
APPID
5
9
100
AcDbSymbolTable
70
2
0
APPID
5
12
100
AcDbSymbolTableRecord
100
AcDbRegAppTableRecord
2
ACAD
70
0
0
ENDTAB
0
TABLE
2
DIMSTYLE
5
A
100
AcDbSymbolTable
70
1
0
ENDTAB
0
TABLE
2
BLOCK_RECORD
5
1
100
AcDbSymbolTable
70
1
0
BLOCK_RECORD
5
1F
100
AcDbSymbolTableRecord
100
AcDbBlockTableRecord
2
*MODEL_SPACE
0
BLOCK_RECORD
5
1B
100
AcDbSymbolTableRecord
100
AcDbBlockTableRecord
2
*PAPER_SPACE
0
ENDTAB
0
ENDSEC
0
SECTION
2
BLOCKS
0
BLOCK
5
20
100
AcDbEntity
100
AcDbBlockBegin
2
*MODEL_SPACE
0
ENDBLK
5
21
100
AcDbEntity
100
AcDbBlockEnd
0
BLOCK
5
1C
100
AcDbEntity
100
AcDbBlockBegin
2
*PAPER_SPACE
0
ENDBLK
5
1D
100
AcDbEntity
100
AcDbBlockEnd
0
ENDSEC
0
SECTION
2
ENTITIES
0
LWPOLYLINE
5
100
100
AcDbEntity
8
0
100
AcDbPolyline
90
4
70
1
43
0.0
10
-57.949998671188965
20
18.59821024374428
10
-57.949998671188965
20
11.398210243744273
10
-59.449998671188958
20
11.398210243744273
10
-59.449998671188958
20
18.59821024374428
0
LWPOLYLINE
5
101
100
AcDbEntity
8
0
100
AcDbPolyline
90
4
70
1
43
0.0
10
-9.0500020850449925
20
18.598210243744361
10
-7.5500020850449889
20
18.598210243744361
10
-7.5500020850449712
20
11.39821024374436
10
-9.0500020850449747
20
11.398210243744352
0
ARC
5
102
100
AcDbEntity
8
0
100
AcDbCircle
10
-21.398694300961765
20
-13.499999657273511
30
0
40
36.300000000000246
210
0
220
-0
230
1
100
AcDbArc
50
77.319616413316425
51
89.999999999999858
0
LINE
5
103
100
AcDbEntity
8
0
100
AcDbLine
10
-21.398694300961676
20
22.80000034272674
30
0
11
-44.38578846911912
21
22.800000342726683
31
0
0
ARC
5
104
100
AcDbEntity
8
0
100
AcDbCircle
10
-44.385788469119092
20
-13.499999657274088
30
0
40
36.300000000000772
210
0
220
0
230
1
100
AcDbArc
50
90.000000000000057
51
101.30993247402009
0
LINE
5
105
100
AcDbEntity
8
0
100
AcDbLine
10
-51.50480417463524
20
22.095078870307084
30
0
11
-53.540487687489495
21
21.687942167736246
31
0
0
SPLINE
5
106
100
AcDbEntity
8
0
100
AcDbSpline
70
0
71
3
72
8
73
4
74
0
42
0.000000001
43
0.0000000001
44
0.0000000001
40
-0.57500537893130155
40
-0.57500537893130155
40
-0.57500537893130155
40
-0.57500537893130155
40
-0.029372534887985125
40
-0.029372534887985125
40
-0.029372534887985125
40
-0.029372534887985125
10
-53.540487687489495
20
21.687942167736246
30
0
10
-55.275775478854108
20
21.296715502820209
30
0
10
-57.508279731546743
20
21.027927609410924
30
0
10
-60.069110352815621
20
20.831608977776703
30
0
0
ARC
5
107
100
AcDbEntity
8
0
100
AcDbCircle
10
-60.050000901520242
20
20.582340389961885
30
0
40
0.25000000000000655
210
0
220
0
230
1
100
AcDbArc
50
94.383839658229377
51
180
0
LINE
5
108
100
AcDbEntity
8
0
100
AcDbLine
10
-60.300000901520235
20
20.582340389961885
30
0
11
-60.300000901520264
21
9.3843500869898655
31
0
0
ARC
5
109
100
AcDbEntity
8
0
100
AcDbCircle
10
-60.050000901520249
20
9.3843500869898726
30
0
40
0.25000000000001243
210
0
220
0
230
1
100
AcDbArc
50
180
51
266.93687927043726
0
ARC
5
110
100
AcDbEntity
8
0
100
AcDbCircle
10
-62.505388732739078
20
-36.499999865889549
30
0
40
45.700000000000038
210
0
220
-0
230
1
100
AcDbArc
50
78.690067525979757
51
86.936879270435114
0
LINE
5
111
100
AcDbEntity
8
0
100
AcDbLine
10
-53.542881356924028
20
8.3125370131855334
30
0
11
-51.504804174635161
21
7.9049215767277081
31
0
0
ARC
5
112
100
AcDbEntity
8
0
100
AcDbCircle
10
-44.385788469118658
20
43.500000104312392
30
0
40
36.300000000004282
210
0
220
0
230
1
100
AcDbArc
50
258.69006752598045
51
264.3094691975964
0
LINE
5
113
100
AcDbEntity
8
0
100
AcDbLine
10
-47.985125745565973
20
7.378887563712432
30
0
11
-44.38082835036105
21
7.2000001043081285
31
0
0
LINE
5
114
100
AcDbEntity
8
0
100
AcDbLine
10
-44.38082835036105
20
7.2000001043081285
30
0
11
-21.493355588364345
21
7.2000001043081152
31
0
0
ARC
5
115
100
AcDbEntity
8
0
100
AcDbCircle
10
-21.493355588364416
20
43.500000104309429
30
0
40
36.300000000001312
210
0
220
0
230
1
100
AcDbArc
50
270.00000000000011
51
277.06862184448158
0
LINE
5
116
100
AcDbEntity
8
0
100
AcDbLine
10
-17.026349987417156
20
7.475898991843053
30
0
11
-14.47245083291663
21
7.8380415132404213
31
0
0
ARC
5
117
100
AcDbEntity
8
0
100
AcDbCircle
10
-3.3986941685069327
20
-36.499999865889251
30
0
40
45.699999999999712
210
0
220
0
230
1
100
AcDbArc
50
94.432599326592211
51
104.02316372854126
0
ARC
5
118
100
AcDbEntity
8
0
100
AcDbCircle
10
-6.9499998547136812
20
9.3125609435993368
30
0
40
0.25000000000001193
210
0
220
0
230
1
100
AcDbArc
50
-85.567400673401607
51
0
0
LINE
5
119
100
AcDbEntity
8
0
100
AcDbLine
10
-6.6999998547136697
20
9.3125609435993368
30
0
11
-6.699999854713683
21
20.687439503435513
31
0
0
ARC
5
120
100
AcDbEntity
8
0
100
AcDbCircle
10
-6.9499998547136776
20
20.687439503435513
30
0
40
0.24999999999999467
210
0
220
0
230
1
100
AcDbArc
50
0
51
85.567400673406908
0
ARC
5
121
100
AcDbEntity
8
0
100
AcDbCircle
10
-3.3986941685069367
20
66.500000312924016
30
0
40
45.699999999999619
210
0
220
0
230
1
100
AcDbArc
50
257.31961641331634
51
265.56740067340769
0
ARC
5
122
100
AcDbEntity
8
0
100
AcDbCircle
10
-44.385788469119092
20
-13.499999657274088
30
0
40
36.300000000000772
210
0
220
0
230
1
100
AcDbArc
50
90.000000000000057
51
101.30993247402013
0
LINE
5
123
100
AcDbEntity
8
0
100
AcDbLine
10
-51.504804174635261
20
22.095078870307084
30
0
11
-53.540487687489495
21
21.687942167736246
31
0
0
SPLINE
5
124
100
AcDbEntity
8
0
100
AcDbSpline
70
0
71
3
72
8
73
4
74
0
42
0.000000001
43
0.0000000001
44
0.0000000001
40
-0.57500537893130155
40
-0.57500537893130155
40
-0.57500537893130155
40
-0.57500537893130155
40
-0.029372534887985125
40
-0.029372534887985125
40
-0.029372534887985125
40
-0.029372534887985125
10
-53.540487687489495
20
21.687942167736246
30
0
10
-55.275775478854108
20
21.296715502820209
30
0
10
-57.508279731546743
20
21.027927609410924
30
0
10
-60.069110352815621
20
20.831608977776703
30
0
0
ARC
5
125
100
AcDbEntity
8
0
100
AcDbCircle
10
-60.050000901520242
20
20.582340389961885
30
0
40
0.25000000000000655
210
0
220
0
230
1
100
AcDbArc
50
94.383839658229377
51
180
0
LINE
5
126
100
AcDbEntity
8
0
100
AcDbLine
10
-60.300000901520256
20
20.582340389961885
30
0
11
-60.300000901520264
21
9.3843500869898655
31
0
0
ARC
5
127
100
AcDbEntity
8
0
100
AcDbCircle
10
-60.050000901520249
20
9.3843500869898726
30
0
40
0.25000000000001243
210
0
220
0
230
1
100
AcDbArc
50
180
51
266.93687927043726
0
ARC
5
128
100
AcDbEntity
8
0
100
AcDbCircle
10
-62.505388732739078
20
-36.499999865889549
30
0
40
45.700000000000038
210
0
220
-0
230
1
100
AcDbArc
50
78.690067525979757
51
86.936879270435114
0
LINE
5
129
100
AcDbEntity
8
0
100
AcDbLine
10
-53.542881356924028
20
8.3125370131855334
30
0
11
-51.504804174635161
21
7.9049215767277081
31
0
0
ARC
5
130
100
AcDbEntity
8
0
100
AcDbCircle
10
-44.385788469118658
20
43.500000104312392
30
0
40
36.300000000004282
210
0
220
0
230
1
100
AcDbArc
50
258.69006752598045
51
264.3094691975964
0
LINE
5
131
100
AcDbEntity
8
0
100
AcDbLine
10
-47.985125745565973
20
7.378887563712432
30
0
11
-44.38082835036105
21
7.2000001043081285
31
0
0
LINE
5
132
100
AcDbEntity
8
0
100
AcDbLine
10
-44.38082835036105
20
7.2000001043081285
30
0
11
-21.493355588364345
21
7.2000001043081152
31
0
0
ARC
5
133
100
AcDbEntity
8
0
100
AcDbCircle
10
-21.493355588364416
20
43.500000104309429
30
0
40
36.300000000001312
210
0
220
0
230
1
100
AcDbArc
50
270.00000000000011
51
277.06862184448158
0
LINE
5
134
100
AcDbEntity
8
0
100
AcDbLine
10
-17.026349987417156
20
7.475898991843053
30
0
11
-14.47245083291663
21
7.8380415132404213
31
0
0
ARC
5
135
100
AcDbEntity
8
0
100
AcDbCircle
10
-3.3986941685069327
20
-36.499999865889251
30
0
40
45.699999999999712
210
0
220
0
230
1
100
AcDbArc
50
94.432599326592211
51
104.02316372854126
0
ARC
5
136
100
AcDbEntity
8
0
100
AcDbCircle
10
-6.9499998547136812
20
9.3125609435993368
30
0
40
0.25000000000001193
210
0
220
0
230
1
100
AcDbArc
50
-85.567400673401607
51
0
0
LINE
5
137
100
AcDbEntity
8
0
100
AcDbLine
10
-6.6999998547136697
20
9.3125609435993368
30
0
11
-6.699999854713683
21
20.687439503435513
31
0
0
ARC
5
138
100
AcDbEntity
8
0
100
AcDbCircle
10
-6.9499998547136776
20
20.687439503435513
30
0
40
0.24999999999999467
210
0
220
0
230
1
100
AcDbArc
50
0
51
85.567400673406851
0
ARC
5
139
100
AcDbEntity
8
0
100
AcDbCircle
10
-3.3986941685069367
20
66.500000312924016
30
0
40
45.699999999999619
210
0
220
0
230
1
100
AcDbArc
50
257.31961641331634
51
265.56740067340769
0
ARC
5
140
100
AcDbEntity
8
0
100
AcDbCircle
10
-21.398694300961765
20
-13.499999657273511
30
0
40
36.300000000000246
210
0
220
-0
230
1
100
AcDbArc
50
77.319616413316425
51
89.999999999999858
0
LINE
5
141
100
AcDbEntity
8
0
100
AcDbLine
10
-21.398694300961676
20
22.80000034272674
30
0
11
-44.38578846911912
21
22.800000342726683
31
0
0
LWPOLYLINE
5
142
100
AcDbEntity
8
0
100
AcDbPolyline
90
4
70
1
43
0.0
10
-7.5500020850449889
20
18.598210243744361
10
-7.5500020850449712
20
11.39821024374436
10
-9.0500020850449747
20
11.398210243744352
10
-9.0500020850449925
20
18.598210243744361
0
LWPOLYLINE
5
143
100
AcDbEntity
8
0
100
AcDbPolyline
90
4
70
1
43
0.0
10
-59.449998671188958
20
11.398210243744273
10
-59.449998671188958
20
18.59821024374428
10
-57.949998671188965
20
18.59821024374428
10
-57.949998671188965
20
11.398210243744273
0
ENDSEC
0
SECTION
2
OBJECTS
0
DICTIONARY
5
C
100
AcDbDictionary
3
ACAD_GROUP
350
D
3
ACAD_MLINESTYLE
350
17
0
DICTIONARY
5
D
100
AcDbDictionary
0
DICTIONARY
5
1A
330
C
100
AcDbDictionary
0
DICTIONARY
5
17
100
AcDbDictionary
0
ENDSEC
0
EOF
