0
SECTION
2
HEADER
9
$INSUNITS
70
4
9
$ACADVER
1
AC1014
9
$HANDSEED
5
FFFF
0
ENDSEC
0
SECTION
2
TABLES
0
TABLE
2
VPORT
5
8
100
AcDbSymbolTable
0
ENDTAB
0
TABLE
2
LTYPE
5
5
100
AcDbSymbolTable
0
LTYPE
5
14
100
AcDbSymbolTableRecord
100
AcDbLinetypeTableRecord
2
BYBLOCK
70
0
0
LTYPE
5
15
100
AcDbSymbolTableRecord
100
AcDbLinetypeTableRecord
2
BYLAYER
70
0
0
LTYPE
5
16
100
AcDbSymbolTableRecord
100
AcDbLinetypeTableRecord
2
DASHED
70
0
3
Dashed __ __ __ __ __ __ __ __ __ __ __ __ __ _
72
65
73
2
40
0.75
49
0.5
74
0
49
-0.25
74
0
0
ENDTAB
0
TABLE
2
LAYER
5
2
100
AcDbSymbolTable
70
2
0
LAYER
5
50
100
AcDbSymbolTableRecord
100
AcDbLayerTableRecord
2
0
70
0
62
7
6
CONTINUOUS
0
ENDTAB
0
TABLE
2
STYLE
5
3
100
AcDbSymbolTable
70
1
0
STYLE
5
11
100
AcDbSymbolTableRecord
100
AcDbTextStyleTableRecord
2
STANDARD
70
0
0
ENDTAB
0
TABLE
2
VIEW
5
6
100
AcDbSymbolTable
70
0
0
ENDTAB
0
TABLE
2
UCS
5
7
100
AcDbSymbolTable
70
0
0
ENDTAB
0
TABLE
2
APPID
5
9
100
AcDbSymbolTable
70
2
0
APPID
5
12
100
AcDbSymbolTableRecord
100
AcDbRegAppTableRecord
2
ACAD
70
0
0
ENDTAB
0
TABLE
2
DIMSTYLE
5
A
100
AcDbSymbolTable
70
1
0
ENDTAB
0
TABLE
2
BLOCK_RECORD
5
1
100
AcDbSymbolTable
70
1
0
BLOCK_RECORD
5
1F
100
AcDbSymbolTableRecord
100
AcDbBlockTableRecord
2
*MODEL_SPACE
0
BLOCK_RECORD
5
1B
100
AcDbSymbolTableRecord
100
AcDbBlockTableRecord
2
*PAPER_SPACE
0
ENDTAB
0
ENDSEC
0
SECTION
2
BLOCKS
0
BLOCK
5
20
100
AcDbEntity
100
AcDbBlockBegin
2
*MODEL_SPACE
0
ENDBLK
5
21
100
AcDbEntity
100
AcDbBlockEnd
0
BLOCK
5
1C
100
AcDbEntity
100
AcDbBlockBegin
2
*PAPER_SPACE
0
ENDBLK
5
1D
100
AcDbEntity
100
AcDbBlockEnd
0
ENDSEC
0
SECTION
2
ENTITIES
0
LINE
5
100
100
AcDbEntity
8
0
100
AcDbLine
10
60.300000901520221
20
-20.582340389961885
30
0
11
60.300000901520264
21
-9.3843500869898655
31
0
0
SPLINE
5
101
100
AcDbEntity
8
0
100
AcDbSpline
70
0
71
3
72
8
73
4
74
0
42
0.000000001
43
0.0000000001
44
0.0000000001
40
0.029372534887985125
40
0.029372534887985125
40
0.029372534887985125
40
0.029372534887985125
40
0.57500537893130155
40
0.57500537893130155
40
0.57500537893130155
40
0.57500537893130155
10
60.069110352815621
20
-20.831608977776703
30
0
10
57.508279731546743
20
-21.027927609410924
30
0
10
55.275775478854108
20
-21.296715502820209
30
0
10
53.540487687489495
20
-21.687942167736246
30
0
0
LINE
5
102
100
AcDbEntity
8
0
100
AcDbLine
10
51.504804174635233
20
-22.095078870307088
30
0
11
53.540487687489495
21
-21.687942167736246
31
0
0
ARC
5
103
100
AcDbEntity
8
0
100
AcDbCircle
10
44.385788469119092
20
13.499999657274088
30
0
40
36.300000000000772
210
0
220
0
230
1
100
AcDbArc
50
270.00000000000006
51
281.30993247402012
0
LINE
5
104
100
AcDbEntity
8
0
100
AcDbLine
10
21.398694300961694
20
-22.800000342726733
30
0
11
44.38578846911912
21
-22.800000342726683
31
0
0
ARC
5
105
100
AcDbEntity
8
0
100
AcDbCircle
10
21.398694300961765
20
13.499999657273511
30
0
40
36.300000000000246
210
0
220
0
230
1
100
AcDbArc
50
257.31961641331645
51
269.99999999999989
0
ARC
5
106
100
AcDbEntity
8
0
100
AcDbCircle
10
3.3986941685069367
20
-66.500000312924016
30
0
40
45.699999999999619
210
0
220
-0
230
1
100
AcDbArc
50
77.319616413316353
51
85.567400673407761
0
LINE
5
107
100
AcDbEntity
8
0
100
AcDbLine
10
6.6999998547136794
20
-20.399999544024471
30
0
11
6.6999998547136794
21
-20.687439503435513
31
0
0
LINE
5
108
100
AcDbEntity
8
0
100
AcDbLine
10
6.6999998547136794
20
-20.399999544024471
30
0
11
6.6999998547136794
21
-9.3125609435993368
31
0
0
ARC
5
109
100
AcDbEntity
8
0
100
AcDbCircle
10
3.3986941685069327
20
36.499999865889251
30
0
40
45.699999999999712
210
0
220
0
230
1
100
AcDbArc
50
274.43259932659225
51
284.02316372854125
0
LINE
5
110
100
AcDbEntity
8
0
100
AcDbLine
10
14.47245083291663
20
-7.8380415132404213
30
0
11
17.026349987417152
21
-7.475898991843053
31
0
0
ARC
5
111
100
AcDbEntity
8
0
100
AcDbCircle
10
21.493355588364416
20
-43.500000104309429
30
0
40
36.300000000001312
210
0
220
0
230
1
100
AcDbArc
50
90.000000000000114
51
97.068621844481598
0
LINE
5
112
100
AcDbEntity
8
0
100
AcDbLine
10
44.38082835036105
20
-7.2000001043081285
30
0
11
21.493355588364345
21
-7.2000001043081152
31
0
0
LINE
5
113
100
AcDbEntity
8
0
100
AcDbLine
10
44.38082835036105
20
-7.2000001043081285
30
0
11
47.985125745565902
21
-7.3788875637124374
31
0
0
ARC
5
114
100
AcDbEntity
8
0
100
AcDbCircle
10
44.385788469118658
20
-43.500000104312392
30
0
40
36.300000000004282
210
0
220
-0
230
1
100
AcDbArc
50
78.690067525980467
51
84.309469197596556
0
LINE
5
115
100
AcDbEntity
8
0
100
AcDbLine
10
53.542881356924028
20
-8.3125370131855156
30
0
11
51.504804174635161
21
-7.9049215767277081
31
0
0
ARC
5
116
100
AcDbEntity
8
0
100
AcDbCircle
10
62.505388732739078
20
36.499999865889549
30
0
40
45.700000000000031
210
0
220
0
230
1
100
AcDbArc
50
258.69006752597971
51
266.9368792704351
0
ARC
5
117
100
AcDbEntity
8
0
100
AcDbCircle
10
6.9499998547136776
20
-20.687439503435513
30
0
40
0.249999999999998
210
0
220
0
230
1
100
AcDbArc
50
180
51
265.56740067340684
0
ARC
5
118
100
AcDbEntity
8
0
100
AcDbCircle
10
6.9499998547136812
20
-9.3125609435993368
30
0
40
0.25000000000001182
210
0
220
0
230
1
100
AcDbArc
50
94.43259932659798
51
180
0
ARC
5
119
100
AcDbEntity
8
0
100
AcDbCircle
10
60.050000901520249
20
-9.3843500869898726
30
0
40
0.25000000000001243
210
0
220
-0
230
1
100
AcDbArc
50
0
51
86.936879270437259
0
ARC
5
120
100
AcDbEntity
8
0
100
AcDbCircle
10
60.050000901520242
20
-20.582340389961885
30
0
40
0.24999999999999845
210
0
220
0
230
1
100
AcDbArc
50
-85.616160338533462
51
0
0
ENDSEC
0
SECTION
2
OBJECTS
0
DICTIONARY
5
C
100
AcDbDictionary
3
ACAD_GROUP
350
D
3
ACAD_MLINESTYLE
350
17
0
DICTIONARY
5
D
100
AcDbDictionary
0
DICTIONARY
5
1A
330
C
100
AcDbDictionary
0
DICTIONARY
5
17
100
AcDbDictionary
0
ENDSEC
0
EOF
