ISO-10303-21;
HEADER;
/* Generated by software containing ST-Developer
 * from STEP Tools, Inc. (www.steptools.com) 
 */

FILE_DESCRIPTION(
/* description */ (''),
/* implementation_level */ '2;1');

FILE_NAME(
/* name */ 'moldedbody_1710473598932.stp',
/* time_stamp */ '2024-03-15T03:33:24Z',
/* author */ (''),
/* organization */ (''),
/* preprocessor_version */ 'ST-DEVELOPER v20',
/* originating_system */ 'ASM',
/* authorisation */ '');

FILE_SCHEMA (('AUTOMOTIVE_DESIGN { 1 0 10303 214 3 1 1 }'));
ENDSEC;

DATA;
#10=MECHANICAL_DESIGN_GEOMETRIC_PRESENTATION_REPRESENTATION('',(#412,#413,
#414,#415,#416,#417,#418,#419,#420,#421,#422,#423,#424),#705);
#11=SHAPE_REPRESENTATION_RELATIONSHIP('SRR','None',#711,#12);
#12=ADVANCED_BREP_SHAPE_REPRESENTATION('',(#13),#704);
#13=MANIFOLD_SOLID_BREP('',#449);
#14=FACE_OUTER_BOUND('',#38,.T.);
#15=FACE_OUTER_BOUND('',#39,.T.);
#16=FACE_OUTER_BOUND('',#40,.T.);
#17=FACE_OUTER_BOUND('',#41,.T.);
#18=FACE_OUTER_BOUND('',#42,.T.);
#19=FACE_OUTER_BOUND('',#43,.T.);
#20=FACE_OUTER_BOUND('',#44,.T.);
#21=FACE_OUTER_BOUND('',#45,.T.);
#22=FACE_OUTER_BOUND('',#46,.T.);
#23=FACE_OUTER_BOUND('',#47,.T.);
#24=FACE_OUTER_BOUND('',#48,.T.);
#25=FACE_OUTER_BOUND('',#49,.T.);
#26=FACE_OUTER_BOUND('',#50,.T.);
#27=FACE_OUTER_BOUND('',#51,.T.);
#28=FACE_OUTER_BOUND('',#52,.T.);
#29=FACE_OUTER_BOUND('',#53,.T.);
#30=FACE_OUTER_BOUND('',#54,.T.);
#31=FACE_OUTER_BOUND('',#55,.T.);
#32=FACE_OUTER_BOUND('',#56,.T.);
#33=FACE_OUTER_BOUND('',#57,.T.);
#34=FACE_OUTER_BOUND('',#58,.T.);
#35=FACE_OUTER_BOUND('',#59,.T.);
#36=FACE_OUTER_BOUND('',#60,.T.);
#37=FACE_OUTER_BOUND('',#61,.T.);
#38=EDGE_LOOP('',(#272,#273,#274,#275));
#39=EDGE_LOOP('',(#276,#277,#278,#279));
#40=EDGE_LOOP('',(#280,#281,#282,#283));
#41=EDGE_LOOP('',(#284,#285,#286,#287,#288,#289));
#42=EDGE_LOOP('',(#290,#291,#292,#293));
#43=EDGE_LOOP('',(#294,#295,#296,#297,#298,#299));
#44=EDGE_LOOP('',(#300,#301,#302,#303));
#45=EDGE_LOOP('',(#304,#305,#306,#307));
#46=EDGE_LOOP('',(#308,#309,#310,#311,#312,#313,#314,#315,#316,#317,#318,
#319));
#47=EDGE_LOOP('',(#320,#321,#322,#323));
#48=EDGE_LOOP('',(#324,#325,#326,#327));
#49=EDGE_LOOP('',(#328,#329,#330,#331));
#50=EDGE_LOOP('',(#332,#333,#334,#335,#336,#337));
#51=EDGE_LOOP('',(#338,#339,#340,#341));
#52=EDGE_LOOP('',(#342,#343,#344,#345,#346,#347));
#53=EDGE_LOOP('',(#348,#349,#350,#351));
#54=EDGE_LOOP('',(#352,#353,#354,#355));
#55=EDGE_LOOP('',(#356,#357,#358,#359));
#56=EDGE_LOOP('',(#360,#361,#362,#363,#364,#365));
#57=EDGE_LOOP('',(#366,#367,#368,#369,#370,#371));
#58=EDGE_LOOP('',(#372,#373,#374,#375));
#59=EDGE_LOOP('',(#376,#377,#378,#379));
#60=EDGE_LOOP('',(#380,#381,#382,#383));
#61=EDGE_LOOP('',(#384,#385,#386,#387));
#62=LINE('',#587,#120);
#63=LINE('',#589,#121);
#64=LINE('',#591,#122);
#65=LINE('',#592,#123);
#66=LINE('',#595,#124);
#67=LINE('',#597,#125);
#68=LINE('',#599,#126);
#69=LINE('',#600,#127);
#70=LINE('',#603,#128);
#71=LINE('',#605,#129);
#72=LINE('',#607,#130);
#73=LINE('',#608,#131);
#74=LINE('',#612,#132);
#75=LINE('',#613,#133);
#76=LINE('',#615,#134);
#77=LINE('',#616,#135);
#78=LINE('',#619,#136);
#79=LINE('',#621,#137);
#80=LINE('',#622,#138);
#81=LINE('',#625,#139);
#82=LINE('',#626,#140);
#83=LINE('',#627,#141);
#84=LINE('',#629,#142);
#85=LINE('',#633,#143);
#86=LINE('',#635,#144);
#87=LINE('',#637,#145);
#88=LINE('',#639,#146);
#89=LINE('',#641,#147);
#90=LINE('',#643,#148);
#91=LINE('',#644,#149);
#92=LINE('',#648,#150);
#93=LINE('',#650,#151);
#94=LINE('',#652,#152);
#95=LINE('',#653,#153);
#96=LINE('',#655,#154);
#97=LINE('',#657,#155);
#98=LINE('',#658,#156);
#99=LINE('',#660,#157);
#100=LINE('',#662,#158);
#101=LINE('',#663,#159);
#102=LINE('',#667,#160);
#103=LINE('',#668,#161);
#104=LINE('',#669,#162);
#105=LINE('',#672,#163);
#106=LINE('',#673,#164);
#107=LINE('',#676,#165);
#108=LINE('',#677,#166);
#109=LINE('',#679,#167);
#110=LINE('',#684,#168);
#111=LINE('',#685,#169);
#112=LINE('',#686,#170);
#113=LINE('',#687,#171);
#114=LINE('',#690,#172);
#115=LINE('',#691,#173);
#116=LINE('',#694,#174);
#117=LINE('',#695,#175);
#118=LINE('',#697,#176);
#119=LINE('',#698,#177);
#120=VECTOR('',#479,2.55);
#121=VECTOR('',#480,0.15);
#122=VECTOR('',#481,1.);
#123=VECTOR('',#482,0.15);
#124=VECTOR('',#485,1.);
#125=VECTOR('',#486,1.);
#126=VECTOR('',#487,1.);
#127=VECTOR('',#488,1.);
#128=VECTOR('',#491,1.);
#129=VECTOR('',#492,1.);
#130=VECTOR('',#493,1.);
#131=VECTOR('',#494,1.);
#132=VECTOR('',#497,1.95);
#133=VECTOR('',#498,1.);
#134=VECTOR('',#499,1.);
#135=VECTOR('',#500,1.);
#136=VECTOR('',#503,2.55);
#137=VECTOR('',#504,1.);
#138=VECTOR('',#505,1.);
#139=VECTOR('',#508,1.95);
#140=VECTOR('',#509,1.);
#141=VECTOR('',#510,1.);
#142=VECTOR('',#513,2.55);
#143=VECTOR('',#518,1.);
#144=VECTOR('',#519,1.);
#145=VECTOR('',#520,1.);
#146=VECTOR('',#521,1.);
#147=VECTOR('',#522,1.);
#148=VECTOR('',#523,1.);
#149=VECTOR('',#524,1.);
#150=VECTOR('',#527,2.55);
#151=VECTOR('',#528,0.15);
#152=VECTOR('',#529,1.);
#153=VECTOR('',#530,0.15);
#154=VECTOR('',#533,1.);
#155=VECTOR('',#534,1.);
#156=VECTOR('',#535,1.);
#157=VECTOR('',#538,1.);
#158=VECTOR('',#539,1.);
#159=VECTOR('',#540,1.);
#160=VECTOR('',#543,1.95);
#161=VECTOR('',#544,1.);
#162=VECTOR('',#545,1.);
#163=VECTOR('',#548,2.55);
#164=VECTOR('',#549,1.);
#165=VECTOR('',#552,1.95);
#166=VECTOR('',#553,1.);
#167=VECTOR('',#556,2.55);
#168=VECTOR('',#561,1.);
#169=VECTOR('',#562,1.);
#170=VECTOR('',#563,1.);
#171=VECTOR('',#564,1.);
#172=VECTOR('',#567,1.);
#173=VECTOR('',#568,1.);
#174=VECTOR('',#571,1.);
#175=VECTOR('',#572,1.);
#176=VECTOR('',#575,1.);
#177=VECTOR('',#576,1.);
#178=VERTEX_POINT('',#585);
#179=VERTEX_POINT('',#586);
#180=VERTEX_POINT('',#588);
#181=VERTEX_POINT('',#590);
#182=VERTEX_POINT('',#594);
#183=VERTEX_POINT('',#596);
#184=VERTEX_POINT('',#598);
#185=VERTEX_POINT('',#602);
#186=VERTEX_POINT('',#604);
#187=VERTEX_POINT('',#606);
#188=VERTEX_POINT('',#610);
#189=VERTEX_POINT('',#611);
#190=VERTEX_POINT('',#614);
#191=VERTEX_POINT('',#618);
#192=VERTEX_POINT('',#620);
#193=VERTEX_POINT('',#624);
#194=VERTEX_POINT('',#632);
#195=VERTEX_POINT('',#634);
#196=VERTEX_POINT('',#636);
#197=VERTEX_POINT('',#638);
#198=VERTEX_POINT('',#640);
#199=VERTEX_POINT('',#642);
#200=VERTEX_POINT('',#646);
#201=VERTEX_POINT('',#647);
#202=VERTEX_POINT('',#649);
#203=VERTEX_POINT('',#651);
#204=VERTEX_POINT('',#656);
#205=VERTEX_POINT('',#661);
#206=VERTEX_POINT('',#665);
#207=VERTEX_POINT('',#666);
#208=VERTEX_POINT('',#671);
#209=VERTEX_POINT('',#675);
#210=VERTEX_POINT('',#682);
#211=VERTEX_POINT('',#683);
#212=VERTEX_POINT('',#689);
#213=VERTEX_POINT('',#693);
#214=EDGE_CURVE('',#178,#179,#62,.T.);
#215=EDGE_CURVE('',#179,#180,#63,.T.);
#216=EDGE_CURVE('',#181,#180,#64,.T.);
#217=EDGE_CURVE('',#181,#178,#65,.T.);
#218=EDGE_CURVE('',#182,#181,#66,.T.);
#219=EDGE_CURVE('',#183,#181,#67,.T.);
#220=EDGE_CURVE('',#183,#184,#68,.T.);
#221=EDGE_CURVE('',#182,#184,#69,.T.);
#222=EDGE_CURVE('',#180,#185,#70,.T.);
#223=EDGE_CURVE('',#186,#185,#71,.T.);
#224=EDGE_CURVE('',#187,#186,#72,.T.);
#225=EDGE_CURVE('',#180,#187,#73,.T.);
#226=EDGE_CURVE('',#188,#189,#74,.T.);
#227=EDGE_CURVE('',#189,#178,#75,.T.);
#228=EDGE_CURVE('',#190,#182,#76,.T.);
#229=EDGE_CURVE('',#188,#190,#77,.T.);
#230=EDGE_CURVE('',#191,#188,#78,.T.);
#231=EDGE_CURVE('',#192,#190,#79,.T.);
#232=EDGE_CURVE('',#191,#192,#80,.T.);
#233=EDGE_CURVE('',#193,#191,#81,.T.);
#234=EDGE_CURVE('',#185,#192,#82,.T.);
#235=EDGE_CURVE('',#193,#179,#83,.T.);
#236=EDGE_CURVE('',#189,#193,#84,.T.);
#237=EDGE_CURVE('',#184,#194,#85,.T.);
#238=EDGE_CURVE('',#194,#195,#86,.T.);
#239=EDGE_CURVE('',#195,#196,#87,.T.);
#240=EDGE_CURVE('',#196,#197,#88,.T.);
#241=EDGE_CURVE('',#197,#198,#89,.T.);
#242=EDGE_CURVE('',#198,#199,#90,.T.);
#243=EDGE_CURVE('',#199,#186,#91,.T.);
#244=EDGE_CURVE('',#200,#201,#92,.T.);
#245=EDGE_CURVE('',#201,#202,#93,.T.);
#246=EDGE_CURVE('',#203,#202,#94,.T.);
#247=EDGE_CURVE('',#203,#200,#95,.T.);
#248=EDGE_CURVE('',#198,#203,#96,.T.);
#249=EDGE_CURVE('',#204,#203,#97,.T.);
#250=EDGE_CURVE('',#204,#199,#98,.T.);
#251=EDGE_CURVE('',#202,#195,#99,.T.);
#252=EDGE_CURVE('',#205,#194,#100,.T.);
#253=EDGE_CURVE('',#202,#205,#101,.T.);
#254=EDGE_CURVE('',#206,#207,#102,.T.);
#255=EDGE_CURVE('',#206,#200,#103,.T.);
#256=EDGE_CURVE('',#207,#197,#104,.T.);
#257=EDGE_CURVE('',#207,#208,#105,.T.);
#258=EDGE_CURVE('',#208,#196,#106,.T.);
#259=EDGE_CURVE('',#208,#209,#107,.T.);
#260=EDGE_CURVE('',#209,#201,#108,.T.);
#261=EDGE_CURVE('',#209,#206,#109,.T.);
#262=EDGE_CURVE('',#210,#211,#110,.T.);
#263=EDGE_CURVE('',#211,#205,#111,.T.);
#264=EDGE_CURVE('',#205,#183,#112,.T.);
#265=EDGE_CURVE('',#183,#210,#113,.T.);
#266=EDGE_CURVE('',#211,#212,#114,.T.);
#267=EDGE_CURVE('',#204,#212,#115,.T.);
#268=EDGE_CURVE('',#213,#210,#116,.T.);
#269=EDGE_CURVE('',#187,#213,#117,.T.);
#270=EDGE_CURVE('',#212,#213,#118,.T.);
#271=EDGE_CURVE('',#187,#204,#119,.T.);
#272=ORIENTED_EDGE('',*,*,#214,.T.);
#273=ORIENTED_EDGE('',*,*,#215,.T.);
#274=ORIENTED_EDGE('',*,*,#216,.F.);
#275=ORIENTED_EDGE('',*,*,#217,.T.);
#276=ORIENTED_EDGE('',*,*,#218,.T.);
#277=ORIENTED_EDGE('',*,*,#219,.F.);
#278=ORIENTED_EDGE('',*,*,#220,.T.);
#279=ORIENTED_EDGE('',*,*,#221,.F.);
#280=ORIENTED_EDGE('',*,*,#222,.T.);
#281=ORIENTED_EDGE('',*,*,#223,.F.);
#282=ORIENTED_EDGE('',*,*,#224,.F.);
#283=ORIENTED_EDGE('',*,*,#225,.F.);
#284=ORIENTED_EDGE('',*,*,#226,.T.);
#285=ORIENTED_EDGE('',*,*,#227,.T.);
#286=ORIENTED_EDGE('',*,*,#217,.F.);
#287=ORIENTED_EDGE('',*,*,#218,.F.);
#288=ORIENTED_EDGE('',*,*,#228,.F.);
#289=ORIENTED_EDGE('',*,*,#229,.F.);
#290=ORIENTED_EDGE('',*,*,#230,.T.);
#291=ORIENTED_EDGE('',*,*,#229,.T.);
#292=ORIENTED_EDGE('',*,*,#231,.F.);
#293=ORIENTED_EDGE('',*,*,#232,.F.);
#294=ORIENTED_EDGE('',*,*,#233,.T.);
#295=ORIENTED_EDGE('',*,*,#232,.T.);
#296=ORIENTED_EDGE('',*,*,#234,.F.);
#297=ORIENTED_EDGE('',*,*,#222,.F.);
#298=ORIENTED_EDGE('',*,*,#215,.F.);
#299=ORIENTED_EDGE('',*,*,#235,.F.);
#300=ORIENTED_EDGE('',*,*,#236,.T.);
#301=ORIENTED_EDGE('',*,*,#235,.T.);
#302=ORIENTED_EDGE('',*,*,#214,.F.);
#303=ORIENTED_EDGE('',*,*,#227,.F.);
#304=ORIENTED_EDGE('',*,*,#236,.F.);
#305=ORIENTED_EDGE('',*,*,#226,.F.);
#306=ORIENTED_EDGE('',*,*,#230,.F.);
#307=ORIENTED_EDGE('',*,*,#233,.F.);
#308=ORIENTED_EDGE('',*,*,#234,.T.);
#309=ORIENTED_EDGE('',*,*,#231,.T.);
#310=ORIENTED_EDGE('',*,*,#228,.T.);
#311=ORIENTED_EDGE('',*,*,#221,.T.);
#312=ORIENTED_EDGE('',*,*,#237,.T.);
#313=ORIENTED_EDGE('',*,*,#238,.T.);
#314=ORIENTED_EDGE('',*,*,#239,.T.);
#315=ORIENTED_EDGE('',*,*,#240,.T.);
#316=ORIENTED_EDGE('',*,*,#241,.T.);
#317=ORIENTED_EDGE('',*,*,#242,.T.);
#318=ORIENTED_EDGE('',*,*,#243,.T.);
#319=ORIENTED_EDGE('',*,*,#223,.T.);
#320=ORIENTED_EDGE('',*,*,#244,.T.);
#321=ORIENTED_EDGE('',*,*,#245,.T.);
#322=ORIENTED_EDGE('',*,*,#246,.F.);
#323=ORIENTED_EDGE('',*,*,#247,.T.);
#324=ORIENTED_EDGE('',*,*,#248,.T.);
#325=ORIENTED_EDGE('',*,*,#249,.F.);
#326=ORIENTED_EDGE('',*,*,#250,.T.);
#327=ORIENTED_EDGE('',*,*,#242,.F.);
#328=ORIENTED_EDGE('',*,*,#251,.T.);
#329=ORIENTED_EDGE('',*,*,#238,.F.);
#330=ORIENTED_EDGE('',*,*,#252,.F.);
#331=ORIENTED_EDGE('',*,*,#253,.F.);
#332=ORIENTED_EDGE('',*,*,#254,.F.);
#333=ORIENTED_EDGE('',*,*,#255,.T.);
#334=ORIENTED_EDGE('',*,*,#247,.F.);
#335=ORIENTED_EDGE('',*,*,#248,.F.);
#336=ORIENTED_EDGE('',*,*,#241,.F.);
#337=ORIENTED_EDGE('',*,*,#256,.F.);
#338=ORIENTED_EDGE('',*,*,#257,.F.);
#339=ORIENTED_EDGE('',*,*,#256,.T.);
#340=ORIENTED_EDGE('',*,*,#240,.F.);
#341=ORIENTED_EDGE('',*,*,#258,.F.);
#342=ORIENTED_EDGE('',*,*,#259,.F.);
#343=ORIENTED_EDGE('',*,*,#258,.T.);
#344=ORIENTED_EDGE('',*,*,#239,.F.);
#345=ORIENTED_EDGE('',*,*,#251,.F.);
#346=ORIENTED_EDGE('',*,*,#245,.F.);
#347=ORIENTED_EDGE('',*,*,#260,.F.);
#348=ORIENTED_EDGE('',*,*,#261,.F.);
#349=ORIENTED_EDGE('',*,*,#260,.T.);
#350=ORIENTED_EDGE('',*,*,#244,.F.);
#351=ORIENTED_EDGE('',*,*,#255,.F.);
#352=ORIENTED_EDGE('',*,*,#261,.T.);
#353=ORIENTED_EDGE('',*,*,#254,.T.);
#354=ORIENTED_EDGE('',*,*,#257,.T.);
#355=ORIENTED_EDGE('',*,*,#259,.T.);
#356=ORIENTED_EDGE('',*,*,#262,.T.);
#357=ORIENTED_EDGE('',*,*,#263,.T.);
#358=ORIENTED_EDGE('',*,*,#264,.T.);
#359=ORIENTED_EDGE('',*,*,#265,.T.);
#360=ORIENTED_EDGE('',*,*,#249,.T.);
#361=ORIENTED_EDGE('',*,*,#246,.T.);
#362=ORIENTED_EDGE('',*,*,#253,.T.);
#363=ORIENTED_EDGE('',*,*,#263,.F.);
#364=ORIENTED_EDGE('',*,*,#266,.T.);
#365=ORIENTED_EDGE('',*,*,#267,.F.);
#366=ORIENTED_EDGE('',*,*,#268,.T.);
#367=ORIENTED_EDGE('',*,*,#265,.F.);
#368=ORIENTED_EDGE('',*,*,#219,.T.);
#369=ORIENTED_EDGE('',*,*,#216,.T.);
#370=ORIENTED_EDGE('',*,*,#225,.T.);
#371=ORIENTED_EDGE('',*,*,#269,.T.);
#372=ORIENTED_EDGE('',*,*,#270,.T.);
#373=ORIENTED_EDGE('',*,*,#269,.F.);
#374=ORIENTED_EDGE('',*,*,#271,.T.);
#375=ORIENTED_EDGE('',*,*,#267,.T.);
#376=ORIENTED_EDGE('',*,*,#264,.F.);
#377=ORIENTED_EDGE('',*,*,#252,.T.);
#378=ORIENTED_EDGE('',*,*,#237,.F.);
#379=ORIENTED_EDGE('',*,*,#220,.F.);
#380=ORIENTED_EDGE('',*,*,#262,.F.);
#381=ORIENTED_EDGE('',*,*,#268,.F.);
#382=ORIENTED_EDGE('',*,*,#270,.F.);
#383=ORIENTED_EDGE('',*,*,#266,.F.);
#384=ORIENTED_EDGE('',*,*,#271,.F.);
#385=ORIENTED_EDGE('',*,*,#224,.T.);
#386=ORIENTED_EDGE('',*,*,#243,.F.);
#387=ORIENTED_EDGE('',*,*,#250,.F.);
#388=PLANE('',#451);
#389=PLANE('',#452);
#390=PLANE('',#453);
#391=PLANE('',#454);
#392=PLANE('',#455);
#393=PLANE('',#456);
#394=PLANE('',#457);
#395=PLANE('',#458);
#396=PLANE('',#459);
#397=PLANE('',#460);
#398=PLANE('',#461);
#399=PLANE('',#462);
#400=PLANE('',#463);
#401=PLANE('',#464);
#402=PLANE('',#465);
#403=PLANE('',#466);
#404=PLANE('',#467);
#405=PLANE('',#468);
#406=PLANE('',#469);
#407=PLANE('',#470);
#408=PLANE('',#471);
#409=PLANE('',#472);
#410=PLANE('',#473);
#411=PLANE('',#474);
#412=STYLED_ITEM('',(#721),#425);
#413=STYLED_ITEM('',(#721),#428);
#414=STYLED_ITEM('',(#721),#429);
#415=STYLED_ITEM('',(#721),#430);
#416=STYLED_ITEM('',(#721),#431);
#417=STYLED_ITEM('',(#721),#432);
#418=STYLED_ITEM('',(#721),#434);
#419=STYLED_ITEM('',(#721),#437);
#420=STYLED_ITEM('',(#721),#438);
#421=STYLED_ITEM('',(#721),#439);
#422=STYLED_ITEM('',(#721),#440);
#423=STYLED_ITEM('',(#721),#441);
#424=STYLED_ITEM('',(#720),#13);
#425=ADVANCED_FACE('',(#14),#388,.T.);
#426=ADVANCED_FACE('',(#15),#389,.F.);
#427=ADVANCED_FACE('',(#16),#390,.F.);
#428=ADVANCED_FACE('',(#17),#391,.T.);
#429=ADVANCED_FACE('',(#18),#392,.T.);
#430=ADVANCED_FACE('',(#19),#393,.T.);
#431=ADVANCED_FACE('',(#20),#394,.T.);
#432=ADVANCED_FACE('',(#21),#395,.T.);
#433=ADVANCED_FACE('',(#22),#396,.F.);
#434=ADVANCED_FACE('',(#23),#397,.T.);
#435=ADVANCED_FACE('',(#24),#398,.F.);
#436=ADVANCED_FACE('',(#25),#399,.F.);
#437=ADVANCED_FACE('',(#26),#400,.T.);
#438=ADVANCED_FACE('',(#27),#401,.T.);
#439=ADVANCED_FACE('',(#28),#402,.T.);
#440=ADVANCED_FACE('',(#29),#403,.T.);
#441=ADVANCED_FACE('',(#30),#404,.F.);
#442=ADVANCED_FACE('',(#31),#405,.T.);
#443=ADVANCED_FACE('',(#32),#406,.T.);
#444=ADVANCED_FACE('',(#33),#407,.T.);
#445=ADVANCED_FACE('',(#34),#408,.T.);
#446=ADVANCED_FACE('',(#35),#409,.F.);
#447=ADVANCED_FACE('',(#36),#410,.T.);
#448=ADVANCED_FACE('',(#37),#411,.F.);
#449=CLOSED_SHELL('',(#425,#426,#427,#428,#429,#430,#431,#432,#433,#434,
#435,#436,#437,#438,#439,#440,#441,#442,#443,#444,#445,#446,#447,#448));
#450=AXIS2_PLACEMENT_3D('',#583,#475,#476);
#451=AXIS2_PLACEMENT_3D('',#584,#477,#478);
#452=AXIS2_PLACEMENT_3D('',#593,#483,#484);
#453=AXIS2_PLACEMENT_3D('',#601,#489,#490);
#454=AXIS2_PLACEMENT_3D('',#609,#495,#496);
#455=AXIS2_PLACEMENT_3D('',#617,#501,#502);
#456=AXIS2_PLACEMENT_3D('',#623,#506,#507);
#457=AXIS2_PLACEMENT_3D('',#628,#511,#512);
#458=AXIS2_PLACEMENT_3D('',#630,#514,#515);
#459=AXIS2_PLACEMENT_3D('',#631,#516,#517);
#460=AXIS2_PLACEMENT_3D('',#645,#525,#526);
#461=AXIS2_PLACEMENT_3D('',#654,#531,#532);
#462=AXIS2_PLACEMENT_3D('',#659,#536,#537);
#463=AXIS2_PLACEMENT_3D('',#664,#541,#542);
#464=AXIS2_PLACEMENT_3D('',#670,#546,#547);
#465=AXIS2_PLACEMENT_3D('',#674,#550,#551);
#466=AXIS2_PLACEMENT_3D('',#678,#554,#555);
#467=AXIS2_PLACEMENT_3D('',#680,#557,#558);
#468=AXIS2_PLACEMENT_3D('',#681,#559,#560);
#469=AXIS2_PLACEMENT_3D('',#688,#565,#566);
#470=AXIS2_PLACEMENT_3D('',#692,#569,#570);
#471=AXIS2_PLACEMENT_3D('',#696,#573,#574);
#472=AXIS2_PLACEMENT_3D('',#699,#577,#578);
#473=AXIS2_PLACEMENT_3D('',#700,#579,#580);
#474=AXIS2_PLACEMENT_3D('',#701,#581,#582);
#475=DIRECTION('axis',(0.,0.,1.));
#476=DIRECTION('refdir',(1.,0.,0.));
#477=DIRECTION('center_axis',(0.,0.,1.));
#478=DIRECTION('ref_axis',(6.12323399573677E-17,-1.,0.));
#479=DIRECTION('',(-6.12323399573677E-17,1.,0.));
#480=DIRECTION('',(-1.,-6.12323399573677E-17,0.));
#481=DIRECTION('',(-6.12323399573677E-17,1.,0.));
#482=DIRECTION('',(1.,6.12323399573677E-17,0.));
#483=DIRECTION('center_axis',(-1.,-6.12323399573677E-17,0.));
#484=DIRECTION('ref_axis',(0.,0.,-1.));
#485=DIRECTION('',(0.,0.,1.));
#486=DIRECTION('',(-6.12323399573677E-17,1.,0.));
#487=DIRECTION('',(0.,0.,-1.));
#488=DIRECTION('',(6.12323399573677E-17,-1.,0.));
#489=DIRECTION('center_axis',(-1.,-6.12323399573677E-17,0.));
#490=DIRECTION('ref_axis',(0.,0.,-1.));
#491=DIRECTION('',(0.,0.,-1.));
#492=DIRECTION('',(6.12323399573677E-17,-1.,0.));
#493=DIRECTION('',(0.,0.,-1.));
#494=DIRECTION('',(-6.12323399573677E-17,1.,0.));
#495=DIRECTION('center_axis',(6.12323399573677E-17,-1.,0.));
#496=DIRECTION('ref_axis',(1.,6.12323399573677E-17,0.));
#497=DIRECTION('',(1.,6.12323399573677E-17,0.));
#498=DIRECTION('',(0.,0.,1.));
#499=DIRECTION('',(1.,6.12323399573677E-17,0.));
#500=DIRECTION('',(0.,0.,1.));
#501=DIRECTION('center_axis',(-1.,-6.12323399573677E-17,0.));
#502=DIRECTION('ref_axis',(6.12323399573677E-17,-1.,0.));
#503=DIRECTION('',(6.12323399573677E-17,-1.,0.));
#504=DIRECTION('',(6.12323399573677E-17,-1.,0.));
#505=DIRECTION('',(0.,0.,1.));
#506=DIRECTION('center_axis',(-6.12323399573677E-17,1.,0.));
#507=DIRECTION('ref_axis',(-1.,-6.12323399573677E-17,0.));
#508=DIRECTION('',(-1.,-6.12323399573677E-17,0.));
#509=DIRECTION('',(-1.,-6.12323399573677E-17,0.));
#510=DIRECTION('',(0.,0.,1.));
#511=DIRECTION('center_axis',(1.,6.12323399573677E-17,0.));
#512=DIRECTION('ref_axis',(-6.12323399573677E-17,1.,0.));
#513=DIRECTION('',(-6.12323399573677E-17,1.,0.));
#514=DIRECTION('center_axis',(0.,0.,-1.));
#515=DIRECTION('ref_axis',(-6.12323399573677E-17,1.,0.));
#516=DIRECTION('center_axis',(0.,0.,1.));
#517=DIRECTION('ref_axis',(6.12323399573677E-17,-1.,0.));
#518=DIRECTION('',(-1.,-6.12323399573677E-17,0.));
#519=DIRECTION('',(-6.12323399573677E-17,1.,0.));
#520=DIRECTION('',(1.,6.12323399573677E-17,0.));
#521=DIRECTION('',(-6.12323399573677E-17,1.,0.));
#522=DIRECTION('',(-1.,-6.12323399573677E-17,0.));
#523=DIRECTION('',(-6.12323399573677E-17,1.,0.));
#524=DIRECTION('',(1.,6.12323399573677E-17,0.));
#525=DIRECTION('center_axis',(0.,0.,1.));
#526=DIRECTION('ref_axis',(6.12323399573677E-17,-1.,0.));
#527=DIRECTION('',(6.12323399573677E-17,-1.,0.));
#528=DIRECTION('',(1.,6.12323399573677E-17,0.));
#529=DIRECTION('',(6.12323399573677E-17,-1.,0.));
#530=DIRECTION('',(-1.,-6.12323399573677E-17,0.));
#531=DIRECTION('center_axis',(1.,6.12323399573677E-17,0.));
#532=DIRECTION('ref_axis',(0.,0.,1.));
#533=DIRECTION('',(0.,0.,1.));
#534=DIRECTION('',(6.12323399573677E-17,-1.,0.));
#535=DIRECTION('',(0.,0.,-1.));
#536=DIRECTION('center_axis',(1.,6.12323399573677E-17,0.));
#537=DIRECTION('ref_axis',(0.,0.,1.));
#538=DIRECTION('',(0.,0.,-1.));
#539=DIRECTION('',(0.,0.,-1.));
#540=DIRECTION('',(6.12323399573677E-17,-1.,0.));
#541=DIRECTION('center_axis',(-6.12323399573677E-17,1.,0.));
#542=DIRECTION('ref_axis',(-1.,-6.12323399573677E-17,0.));
#543=DIRECTION('',(1.,6.12323399573676E-17,0.));
#544=DIRECTION('',(0.,0.,1.));
#545=DIRECTION('',(0.,0.,1.));
#546=DIRECTION('center_axis',(1.,6.12323399573677E-17,0.));
#547=DIRECTION('ref_axis',(-6.12323399573677E-17,1.,0.));
#548=DIRECTION('',(6.12323399573677E-17,-1.,0.));
#549=DIRECTION('',(0.,0.,1.));
#550=DIRECTION('center_axis',(6.12323399573677E-17,-1.,0.));
#551=DIRECTION('ref_axis',(1.,6.12323399573677E-17,0.));
#552=DIRECTION('',(-1.,-6.12323399573676E-17,0.));
#553=DIRECTION('',(0.,0.,1.));
#554=DIRECTION('center_axis',(-1.,-6.12323399573677E-17,0.));
#555=DIRECTION('ref_axis',(6.12323399573677E-17,-1.,0.));
#556=DIRECTION('',(-6.12323399573677E-17,1.,0.));
#557=DIRECTION('center_axis',(0.,0.,1.));
#558=DIRECTION('ref_axis',(6.12323399573677E-17,-1.,0.));
#559=DIRECTION('center_axis',(6.08578267196332E-17,-0.993883734673619,0.110431526074847));
#560=DIRECTION('ref_axis',(6.76198074662593E-18,-0.110431526074847,-0.993883734673619));
#561=DIRECTION('',(-1.,-6.12323399573677E-17,0.));
#562=DIRECTION('',(-0.10976425998969,-0.109764259989691,-0.987878339907213));
#563=DIRECTION('',(1.,6.12323399573677E-17,0.));
#564=DIRECTION('',(-0.109764259989691,0.109764259989691,0.987878339907213));
#565=DIRECTION('center_axis',(-0.993883734673619,-6.08578267196332E-17,
0.110431526074847));
#566=DIRECTION('ref_axis',(-0.110431526074847,-6.76198074662592E-18,-0.993883734673619));
#567=DIRECTION('',(-6.12323399573677E-17,1.,0.));
#568=DIRECTION('',(0.10976425998969,-0.10976425998969,0.987878339907213));
#569=DIRECTION('center_axis',(0.993883734673619,6.08578267196332E-17,0.110431526074847));
#570=DIRECTION('ref_axis',(-0.110431526074847,-6.76198074662593E-18,0.993883734673619));
#571=DIRECTION('',(6.12323399573677E-17,-1.,0.));
#572=DIRECTION('',(-0.109764259989691,-0.10976425998969,0.987878339907213));
#573=DIRECTION('center_axis',(-6.08578267196332E-17,0.993883734673619,0.110431526074846));
#574=DIRECTION('ref_axis',(6.76198074662591E-18,-0.110431526074846,0.993883734673619));
#575=DIRECTION('',(1.,6.12323399573677E-17,0.));
#576=DIRECTION('',(-1.,-6.12323399573677E-17,0.));
#577=DIRECTION('center_axis',(-6.12323399573677E-17,1.,0.));
#578=DIRECTION('ref_axis',(0.,0.,1.));
#579=DIRECTION('center_axis',(0.,0.,1.));
#580=DIRECTION('ref_axis',(6.12323399573677E-17,-1.,0.));
#581=DIRECTION('center_axis',(6.12323399573677E-17,-1.,0.));
#582=DIRECTION('ref_axis',(0.,0.,-1.));
#583=CARTESIAN_POINT('',(0.,0.,0.));
#584=CARTESIAN_POINT('Origin',(3.1,1.275,1.65));
#585=CARTESIAN_POINT('',(3.1,-1.275,1.65));
#586=CARTESIAN_POINT('',(3.1,1.275,1.65));
#587=CARTESIAN_POINT('',(3.1,-1.275,1.65));
#588=CARTESIAN_POINT('',(2.95,1.275,1.65));
#589=CARTESIAN_POINT('',(3.1,1.275,1.65));
#590=CARTESIAN_POINT('',(2.95,-1.275,1.65));
#591=CARTESIAN_POINT('',(2.95,4.44089209850063E-16,1.65));
#592=CARTESIAN_POINT('',(2.95,-1.275,1.65));
#593=CARTESIAN_POINT('Origin',(2.95,4.44089209850063E-16,1.575));
#594=CARTESIAN_POINT('',(2.95,-1.275,0.15));
#595=CARTESIAN_POINT('',(2.95,-1.275,0.8625));
#596=CARTESIAN_POINT('',(2.95,-2.725,1.65));
#597=CARTESIAN_POINT('',(2.95,4.44089209850063E-16,1.65));
#598=CARTESIAN_POINT('',(2.95,-2.725,0.15));
#599=CARTESIAN_POINT('',(2.95,-2.725,1.575));
#600=CARTESIAN_POINT('',(2.95,4.44089209850063E-16,0.15));
#601=CARTESIAN_POINT('Origin',(2.95,4.44089209850063E-16,1.575));
#602=CARTESIAN_POINT('',(2.95,1.275,0.15));
#603=CARTESIAN_POINT('',(2.95,1.275,0.8625));
#604=CARTESIAN_POINT('',(2.95,2.725,0.15));
#605=CARTESIAN_POINT('',(2.95,4.44089209850063E-16,0.15));
#606=CARTESIAN_POINT('',(2.95,2.725,1.65));
#607=CARTESIAN_POINT('',(2.95,2.725,1.575));
#608=CARTESIAN_POINT('',(2.95,4.44089209850063E-16,1.65));
#609=CARTESIAN_POINT('Origin',(1.15,-1.275,0.));
#610=CARTESIAN_POINT('',(1.15,-1.275,0.));
#611=CARTESIAN_POINT('',(3.1,-1.275,0.));
#612=CARTESIAN_POINT('',(1.15,-1.275,0.));
#613=CARTESIAN_POINT('',(3.1,-1.275,0.));
#614=CARTESIAN_POINT('',(1.15,-1.275,0.15));
#615=CARTESIAN_POINT('',(0.575000000000001,-1.275,0.15));
#616=CARTESIAN_POINT('',(1.15,-1.275,0.));
#617=CARTESIAN_POINT('Origin',(1.15,1.275,0.));
#618=CARTESIAN_POINT('',(1.15,1.275,0.));
#619=CARTESIAN_POINT('',(1.15,1.275,0.));
#620=CARTESIAN_POINT('',(1.15,1.275,0.15));
#621=CARTESIAN_POINT('',(1.15,0.6375,0.15));
#622=CARTESIAN_POINT('',(1.15,1.275,0.));
#623=CARTESIAN_POINT('Origin',(3.1,1.275,0.));
#624=CARTESIAN_POINT('',(3.1,1.275,0.));
#625=CARTESIAN_POINT('',(3.1,1.275,0.));
#626=CARTESIAN_POINT('',(1.55,1.275,0.15));
#627=CARTESIAN_POINT('',(3.1,1.275,0.));
#628=CARTESIAN_POINT('Origin',(3.1,-1.275,0.));
#629=CARTESIAN_POINT('',(3.1,-1.275,0.));
#630=CARTESIAN_POINT('Origin',(3.1,1.275,0.));
#631=CARTESIAN_POINT('Origin',(0.,0.,0.15));
#632=CARTESIAN_POINT('',(-2.95,-2.725,0.15));
#633=CARTESIAN_POINT('',(4.44089209850063E-16,-2.725,0.15));
#634=CARTESIAN_POINT('',(-2.95,-1.275,0.15));
#635=CARTESIAN_POINT('',(-2.95,0.,0.15));
#636=CARTESIAN_POINT('',(-1.15,-1.275,0.15));
#637=CARTESIAN_POINT('',(-1.55,-1.275,0.15));
#638=CARTESIAN_POINT('',(-1.15,1.275,0.15));
#639=CARTESIAN_POINT('',(-1.15,-0.6375,0.15));
#640=CARTESIAN_POINT('',(-2.95,1.275,0.15));
#641=CARTESIAN_POINT('',(-0.575,1.275,0.15));
#642=CARTESIAN_POINT('',(-2.95,2.725,0.15));
#643=CARTESIAN_POINT('',(-2.95,0.,0.15));
#644=CARTESIAN_POINT('',(0.,2.725,0.15));
#645=CARTESIAN_POINT('Origin',(-3.1,1.275,1.65));
#646=CARTESIAN_POINT('',(-3.1,1.275,1.65));
#647=CARTESIAN_POINT('',(-3.1,-1.275,1.65));
#648=CARTESIAN_POINT('',(-3.1,-1.275,1.65));
#649=CARTESIAN_POINT('',(-2.95,-1.275,1.65));
#650=CARTESIAN_POINT('',(-2.95,-1.275,1.65));
#651=CARTESIAN_POINT('',(-2.95,1.275,1.65));
#652=CARTESIAN_POINT('',(-2.95,0.,1.65));
#653=CARTESIAN_POINT('',(-3.1,1.275,1.65));
#654=CARTESIAN_POINT('Origin',(-2.95,0.,1.575));
#655=CARTESIAN_POINT('',(-2.95,1.275,0.8625));
#656=CARTESIAN_POINT('',(-2.95,2.725,1.65));
#657=CARTESIAN_POINT('',(-2.95,0.,1.65));
#658=CARTESIAN_POINT('',(-2.95,2.725,1.575));
#659=CARTESIAN_POINT('Origin',(-2.95,0.,1.575));
#660=CARTESIAN_POINT('',(-2.95,-1.275,0.8625));
#661=CARTESIAN_POINT('',(-2.95,-2.725,1.65));
#662=CARTESIAN_POINT('',(-2.95,-2.725,1.575));
#663=CARTESIAN_POINT('',(-2.95,0.,1.65));
#664=CARTESIAN_POINT('Origin',(-1.15,1.275,0.));
#665=CARTESIAN_POINT('',(-3.1,1.275,0.));
#666=CARTESIAN_POINT('',(-1.15,1.275,0.));
#667=CARTESIAN_POINT('',(-3.1,1.275,0.));
#668=CARTESIAN_POINT('',(-3.1,1.275,0.));
#669=CARTESIAN_POINT('',(-1.15,1.275,0.));
#670=CARTESIAN_POINT('Origin',(-1.15,-1.275,0.));
#671=CARTESIAN_POINT('',(-1.15,-1.275,0.));
#672=CARTESIAN_POINT('',(-1.15,1.275,0.));
#673=CARTESIAN_POINT('',(-1.15,-1.275,0.));
#674=CARTESIAN_POINT('Origin',(-3.1,-1.275,0.));
#675=CARTESIAN_POINT('',(-3.1,-1.275,0.));
#676=CARTESIAN_POINT('',(-1.15,-1.275,0.));
#677=CARTESIAN_POINT('',(-3.1,-1.275,0.));
#678=CARTESIAN_POINT('Origin',(-3.1,1.275,0.));
#679=CARTESIAN_POINT('',(-3.1,-1.275,0.));
#680=CARTESIAN_POINT('Origin',(-3.1,1.275,0.));
#681=CARTESIAN_POINT('Origin',(4.44089209850063E-16,-2.65,2.325));
#682=CARTESIAN_POINT('',(2.8,-2.575,3.));
#683=CARTESIAN_POINT('',(-2.8,-2.575,3.));
#684=CARTESIAN_POINT('',(4.44089209850063E-16,-2.575,3.));
#685=CARTESIAN_POINT('',(-2.8,-2.575,3.));
#686=CARTESIAN_POINT('',(4.44089209850063E-16,-2.725,1.65));
#687=CARTESIAN_POINT('',(2.95,-2.725,1.65));
#688=CARTESIAN_POINT('Origin',(-2.875,0.,2.325));
#689=CARTESIAN_POINT('',(-2.8,2.575,3.));
#690=CARTESIAN_POINT('',(-2.8,0.,3.));
#691=CARTESIAN_POINT('',(-2.95,2.725,1.65));
#692=CARTESIAN_POINT('Origin',(2.875,4.44089209850063E-16,2.325));
#693=CARTESIAN_POINT('',(2.8,2.575,3.));
#694=CARTESIAN_POINT('',(2.8,4.44089209850063E-16,3.));
#695=CARTESIAN_POINT('',(2.95,2.725,1.65));
#696=CARTESIAN_POINT('Origin',(0.,2.65,2.325));
#697=CARTESIAN_POINT('',(0.,2.575,3.));
#698=CARTESIAN_POINT('',(0.,2.725,1.65));
#699=CARTESIAN_POINT('Origin',(4.44089209850063E-16,-2.725,1.575));
#700=CARTESIAN_POINT('Origin',(0.,0.,3.));
#701=CARTESIAN_POINT('Origin',(0.,2.725,1.575));
#702=UNCERTAINTY_MEASURE_WITH_UNIT(LENGTH_MEASURE(0.01),#706,
'DISTANCE_ACCURACY_VALUE',
'Maximum model space distance between geometric entities at asserted c
onnectivities');
#703=UNCERTAINTY_MEASURE_WITH_UNIT(LENGTH_MEASURE(0.01),#706,
'DISTANCE_ACCURACY_VALUE',
'Maximum model space distance between geometric entities at asserted c
onnectivities');
#704=(
GEOMETRIC_REPRESENTATION_CONTEXT(3)
GLOBAL_UNCERTAINTY_ASSIGNED_CONTEXT((#702))
GLOBAL_UNIT_ASSIGNED_CONTEXT((#706,#707,#708))
REPRESENTATION_CONTEXT('','3D')
);
#705=(
GEOMETRIC_REPRESENTATION_CONTEXT(3)
GLOBAL_UNCERTAINTY_ASSIGNED_CONTEXT((#703))
GLOBAL_UNIT_ASSIGNED_CONTEXT((#706,#707,#708))
REPRESENTATION_CONTEXT('','3D')
);
#706=(
LENGTH_UNIT()
NAMED_UNIT(*)
SI_UNIT(.MILLI.,.METRE.)
);
#707=(
NAMED_UNIT(*)
PLANE_ANGLE_UNIT()
SI_UNIT($,.RADIAN.)
);
#708=(
NAMED_UNIT(*)
SI_UNIT($,.STERADIAN.)
SOLID_ANGLE_UNIT()
);
#709=SHAPE_DEFINITION_REPRESENTATION(#710,#711);
#710=PRODUCT_DEFINITION_SHAPE('',$,#713);
#711=SHAPE_REPRESENTATION('',(#450),#704);
#712=PRODUCT_DEFINITION_CONTEXT('part definition',#717,'design');
#713=PRODUCT_DEFINITION('moldedbody_1710473598932',
'moldedbody_1710473598932',#714,#712);
#714=PRODUCT_DEFINITION_FORMATION('',$,#719);
#715=PRODUCT_RELATED_PRODUCT_CATEGORY('moldedbody_1710473598932',
'moldedbody_1710473598932',(#719));
#716=APPLICATION_PROTOCOL_DEFINITION('international standard',
'automotive_design',2009,#717);
#717=APPLICATION_CONTEXT(
'Core Data for Automotive Mechanical Design Process');
#718=PRODUCT_CONTEXT('part definition',#717,'mechanical');
#719=PRODUCT('moldedbody_1710473598932','moldedbody_1710473598932',$,(#718));
#720=PRESENTATION_STYLE_ASSIGNMENT((#722));
#721=PRESENTATION_STYLE_ASSIGNMENT((#723));
#722=SURFACE_STYLE_USAGE(.BOTH.,#728);
#723=SURFACE_STYLE_USAGE(.BOTH.,#729);
#724=SURFACE_STYLE_RENDERING_WITH_PROPERTIES($,#736,(#726));
#725=SURFACE_STYLE_RENDERING_WITH_PROPERTIES($,#737,(#727));
#726=SURFACE_STYLE_TRANSPARENT(0.);
#727=SURFACE_STYLE_TRANSPARENT(0.);
#728=SURFACE_SIDE_STYLE('',(#730,#724));
#729=SURFACE_SIDE_STYLE('',(#731,#725));
#730=SURFACE_STYLE_FILL_AREA(#732);
#731=SURFACE_STYLE_FILL_AREA(#733);
#732=FILL_AREA_STYLE('',(#734));
#733=FILL_AREA_STYLE('',(#735));
#734=FILL_AREA_STYLE_COLOUR('',#736);
#735=FILL_AREA_STYLE_COLOUR('',#737);
#736=COLOUR_RGB('',0.0392156862745098,0.0392156862745098,0.0392156862745098);
#737=COLOUR_RGB('',0.749019607843137,0.749019607843137,0.749019607843137);
ENDSEC;
END-ISO-10303-21;
