0
SECTION
2
HEADER
9
$INSUNITS
70
6
9
$ACADVER
1
AC1014
9
$HANDSEED
5
FFFF
0
ENDSEC
0
SECTION
2
TABLES
0
TABLE
2
VPORT
5
8
100
AcDbSymbolTable
0
ENDTAB
0
TABLE
2
LTYPE
5
5
100
AcDbSymbolTable
0
LTYPE
5
14
100
AcDbSymbolTableRecord
100
AcDbLinetypeTableRecord
2
BYBLOCK
70
0
0
LTYPE
5
15
100
AcDbSymbolTableRecord
100
AcDbLinetypeTableRecord
2
BYLAYER
70
0
0
ENDTAB
0
TABLE
2
LAYER
5
2
100
AcDbSymbolTable
70
2
0
LAYER
5
50
100
AcDbSymbolTableRecord
100
AcDbLayerTableRecord
2
0
70
0
6
CONTINUOUS
0
ENDTAB
0
TABLE
2
STYLE
5
3
100
AcDbSymbolTable
70
1
0
STYLE
5
11
100
AcDbSymbolTableRecord
100
AcDbTextStyleTableRecord
2
STANDARD
70
0
0
ENDTAB
0
TABLE
2
VIEW
5
6
100
AcDbSymbolTable
70
0
0
ENDTAB
0
TABLE
2
UCS
5
7
100
AcDbSymbolTable
70
0
0
ENDTAB
0
TABLE
2
APPID
5
9
100
AcDbSymbolTable
70
2
0
APPID
5
12
100
AcDbSymbolTableRecord
100
AcDbRegAppTableRecord
2
ACAD
70
0
0
ENDTAB
0
TABLE
2
DIMSTYLE
5
A
100
AcDbSymbolTable
70
1
0
ENDTAB
0
TABLE
2
BLOCK_RECORD
5
1
100
AcDbSymbolTable
70
1
0
BLOCK_RECORD
5
1F
100
AcDbSymbolTableRecord
100
AcDbBlockTableRecord
2
*MODEL_SPACE
0
BLOCK_RECORD
5
1B
100
AcDbSymbolTableRecord
100
AcDbBlockTableRecord
2
*PAPER_SPACE
0
ENDTAB
0
ENDSEC
0
SECTION
2
BLOCKS
0
BLOCK
5
20
100
AcDbEntity
100
AcDbBlockBegin
2
*MODEL_SPACE
0
ENDBLK
5
21
100
AcDbEntity
100
AcDbBlockEnd
0
BLOCK
5
1C
100
AcDbEntity
100
AcDbBlockBegin
2
*PAPER_SPACE
0
ENDBLK
5
1D
100
AcDbEntity
100
AcDbBlockEnd
0
ENDSEC
0
SECTION
2
ENTITIES
0
LINE
5
100
100
AcDbEntity
8
0
100
AcDbLine
10
0.078547334797916854
20
-0.069660185167782024
30
-6.6515687388258194e-05
11
0.085472497081171911
21
-0.051064189203352858
31
-6.9573619728872555e-05
0
LINE
5
101
100
AcDbEntity
8
0
100
AcDbLine
10
0.085472497081171911
20
-0.051064189203352858
30
-6.9573619728872555e-05
11
0.062459214006505739
21
-0.042494024349482615
31
-5.9411682766341576e-05
0
LINE
5
102
100
AcDbEntity
8
0
100
AcDbLine
10
0.062459214006505739
20
-0.042494024349482615
30
-5.9411682766341576e-05
11
0.062551793477405929
21
-0.042026230118884789
31
-5.9452562928648702e-05
0
LINE
5
103
100
AcDbEntity
8
0
100
AcDbLine
10
0.062551793477405929
20
-0.042026230118884789
30
-5.9452562928648702e-05
11
0.039548130687879067
21
-0.037914551222413613
31
-4.9294873979355547e-05
0
LINE
5
104
100
AcDbEntity
8
0
100
AcDbLine
10
0.039548130687879067
20
-0.037914551222413613
30
-4.9294873979355547e-05
11
0.039548130687879067
21
-0.035177005155045127
31
-4.9294873979355547e-05
0
LINE
5
105
100
AcDbEntity
8
0
100
AcDbLine
10
0.039548130687879067
20
-0.035177005155045127
30
-4.9294873979355547e-05
11
0.029699008645727325
21
-0.035177005155045127
31
-4.4945777361818116e-05
0
LINE
5
106
100
AcDbEntity
8
0
100
AcDbLine
10
0.029699008645727325
20
-0.035177005155045127
30
-4.4945777361818116e-05
11
0.029699008653260698
21
0.024733357028970261
31
-4.4928717051470352e-05
0
LINE
5
107
100
AcDbEntity
8
0
100
AcDbLine
10
0.029699008653260698
20
0.024733357028970261
30
-4.4928717051470352e-05
11
0.010392935262248848
21
0.024733357028970261
31
-3.6454459008053883e-05
0
LINE
5
108
100
AcDbEntity
8
0
100
AcDbLine
10
0.010392935262248848
20
0.024733357028970261
30
-3.6454459008053883e-05
11
0.010392935263066902
21
0.034530031577786835
31
-3.6452595275767673e-05
0
LINE
5
109
100
AcDbEntity
8
0
100
AcDbLine
10
0.010392935263066902
20
0.034530031577786835
30
-3.6452595275767673e-05
11
-0.017836130918276894
21
0.034530031577786342
31
-2.4058994455724296e-05
0
LINE
5
110
100
AcDbEntity
8
0
100
AcDbLine
10
-0.017836130918276894
20
0.034530031577786342
30
-2.4058994455724296e-05
11
-0.018359694693284936
21
0.041116938071650191
31
-2.3896600614729361e-05
0
LINE
5
111
100
AcDbEntity
8
0
100
AcDbLine
10
-0.018359694693284936
20
0.041116938071650191
30
-2.3896600614729361e-05
11
-0.03822083511277926
21
0.039538264518612157
31
-1.5126550018643107e-05
0
LINE
5
112
100
AcDbEntity
8
0
100
AcDbLine
10
-0.03822083511277926
20
0.039538264518612157
30
-1.5126550018643107e-05
11
-0.0375174112024328
21
0.030688553829109382
31
-1.5486837027970431e-05
0
LINE
5
113
100
AcDbEntity
8
0
100
AcDbLine
10
-0.0375174112024328
20
0.030688553829109382
30
-1.5486837027970431e-05
11
-0.066045307262393702
21
0.025601875404447933
31
-2.8898216219378372e-06
0
LINE
5
114
100
AcDbEntity
8
0
100
AcDbLine
10
-0.066045307262393702
20
0.025601875404447933
30
-2.8898216219378372e-06
11
-0.063625560879432511
21
0.012031077683626559
31
-3.7366383893938997e-06
0
LINE
5
115
100
AcDbEntity
8
0
100
AcDbLine
10
-0.063625560879432511
20
0.012031077683626559
30
-3.7366383893938997e-06
11
-0.082949959936359591
21
0.0085854326369041029
31
4.7964032588869715e-06
0
LINE
5
116
100
AcDbEntity
8
0
100
AcDbLine
10
-0.082949959936359591
20
0.0085854326369041029
30
4.7964032588869715e-06
11
-0.081201300618980052
21
-0.0012216707049241505
31
4.0242506853276123e-06
0
LINE
5
117
100
AcDbEntity
8
0
100
AcDbLine
10
-0.081201300618980052
20
-0.0012216707049241505
30
4.0242506853276123e-06
11
-0.10053594633739144
21
-0.0046691427869032485
31
1.2561817895790322e-05
0
LINE
5
118
100
AcDbEntity
8
0
100
AcDbLine
10
-0.10053594633739144
20
-0.0046691427869032485
30
1.2561817895790322e-05
11
-0.097034281213754681
21
-0.024307726125963318
31
1.1015593476838901e-05
0
LINE
5
119
100
AcDbEntity
8
0
100
AcDbLine
10
-0.097034281213754681
20
-0.024307726125963318
30
1.1015593476838901e-05
11
-0.077699635495343297
21
-0.020860254043984214
31
2.4780262663762004e-06
0
LINE
5
120
100
AcDbEntity
8
0
100
AcDbLine
10
-0.077699635495343297
20
-0.020860254043984214
30
2.4780262663762004e-06
11
-0.076018536952851157
21
-0.030288452533054854
31
1.7357063913204954e-06
0
LINE
5
121
100
AcDbEntity
8
0
100
AcDbLine
10
-0.076018536952851157
20
-0.030288452533054854
30
1.7357063913204954e-06
11
-0.06671527539737207
21
-0.028629630551358098
31
-2.9255345364558284e-06
0
LINE
5
122
100
AcDbEntity
8
0
100
AcDbLine
10
-0.06671527539737207
20
-0.028629630551358098
30
-2.9255345364558284e-06
11
-0.041408992510115525
21
-0.053459129084244113
31
-1.4099987595670557e-05
0
LINE
5
123
100
AcDbEntity
8
0
100
AcDbLine
10
-0.041408992510115525
20
-0.053459129084244113
30
-1.4099987595670557e-05
11
-1.3906953121195359e-05
21
-0.053459129084244113
31
-3.1825531108425137e-05
0
LINE
5
124
100
AcDbEntity
8
0
100
AcDbLine
10
-1.3906953121195359e-05
20
-0.053459129084244113
30
-3.1825531108425137e-05
11
-1.3906953121195359e-05
21
-0.055054686803852337
31
-3.1825531108425137e-05
0
LINE
5
125
100
AcDbEntity
8
0
100
AcDbLine
10
-1.3906953121195359e-05
20
-0.055054686803852337
30
-3.1825531108425137e-05
11
0.021893920017550396
21
-0.055054686803852337
31
-4.1499333665830578e-05
0
LINE
5
126
100
AcDbEntity
8
0
100
AcDbLine
10
0.021893920017550396
20
-0.055054686803852337
30
-4.1499333665830578e-05
11
0.060323450613417172
21
-0.061750186728878824
31
-5.8468597292746584e-05
0
LINE
5
127
100
AcDbEntity
8
0
100
AcDbLine
10
0.060323450613417172
20
-0.061750186728878824
30
-5.8468597292746584e-05
11
0.059812460886349783
21
-0.06291384133829514
31
-5.8242960412597306e-05
0
LINE
5
128
100
AcDbEntity
8
0
100
AcDbLine
10
0.059812460886349783
20
-0.06291384133829514
30
-5.8242960412597306e-05
11
0.078547334797916854
21
-0.069660185167782024
31
-6.6515687388258194e-05
0
ENDSEC
0
SECTION
2
OBJECTS
0
DICTIONARY
5
C
100
AcDbDictionary
3
ACAD_GROUP
350
D
3
ACAD_MLINESTYLE
350
17
0
DICTIONARY
5
D
100
AcDbDictionary
0
DICTIONARY
5
1A
330
C
100
AcDbDictionary
0
DICTIONARY
5
17
100
AcDbDictionary
0
ENDSEC
0
EOF
