ISO-10303-21;
HEADER;
FILE_DESCRIPTION((''),'2;1');
FILE_NAME('HVC_4020','2024-09-20T',('Designer'),(''),
'PRO/ENGINEER BY PARAMETRIC TECHNOLOGY CORPORATION, 2017170',
'PRO/ENGINEER BY PARAMETRIC TECHNOLOGY CORPORATION, 2017170','');
FILE_SCHEMA(('AUTOMOTIVE_DESIGN { 1 0 10303 214 1 1 1 1 }'));
ENDSEC;
DATA;
#15=DIRECTION('',(0.E0,0.E0,-1.E0));
#16=VECTOR('',#15,5.1E0);
#17=CARTESIAN_POINT('',(-4.2E0,-3.E-1,2.55E0));
#18=LINE('',#17,#16);
#19=DIRECTION('',(-1.E0,0.E0,0.E0));
#20=VECTOR('',#19,9.E-1);
#21=CARTESIAN_POINT('',(-4.2E0,-3.E-1,-2.55E0));
#22=LINE('',#21,#20);
#23=DIRECTION('',(0.E0,0.E0,1.E0));
#24=VECTOR('',#23,5.1E0);
#25=CARTESIAN_POINT('',(-5.1E0,-3.E-1,-2.55E0));
#26=LINE('',#25,#24);
#27=DIRECTION('',(1.E0,0.E0,0.E0));
#28=VECTOR('',#27,9.E-1);
#29=CARTESIAN_POINT('',(-5.1E0,-3.E-1,2.55E0));
#30=LINE('',#29,#28);
#31=DIRECTION('',(0.E0,0.E0,-1.E0));
#32=VECTOR('',#31,5.1E0);
#33=CARTESIAN_POINT('',(4.2E0,-3.E-1,2.55E0));
#34=LINE('',#33,#32);
#35=DIRECTION('',(1.E0,0.E0,0.E0));
#36=VECTOR('',#35,9.E-1);
#37=CARTESIAN_POINT('',(4.2E0,-3.E-1,2.55E0));
#38=LINE('',#37,#36);
#39=DIRECTION('',(0.E0,0.E0,-1.E0));
#40=VECTOR('',#39,5.1E0);
#41=CARTESIAN_POINT('',(5.1E0,-3.E-1,2.55E0));
#42=LINE('',#41,#40);
#43=DIRECTION('',(-1.E0,0.E0,0.E0));
#44=VECTOR('',#43,9.E-1);
#45=CARTESIAN_POINT('',(5.1E0,-3.E-1,-2.55E0));
#46=LINE('',#45,#44);
#47=DIRECTION('',(0.E0,-1.E0,0.E0));
#48=VECTOR('',#47,6.E-1);
#49=CARTESIAN_POINT('',(-4.2E0,3.E-1,-2.55E0));
#50=LINE('',#49,#48);
#51=DIRECTION('',(0.E0,1.E0,0.E0));
#52=VECTOR('',#51,6.E-1);
#53=CARTESIAN_POINT('',(-4.2E0,-3.E-1,2.55E0));
#54=LINE('',#53,#52);
#55=DIRECTION('',(1.E0,0.E0,0.E0));
#56=VECTOR('',#55,8.4E0);
#57=CARTESIAN_POINT('',(-4.2E0,-2.94E-1,-2.544E0));
#58=LINE('',#57,#56);
#59=DIRECTION('',(0.E0,0.E0,1.E0));
#60=VECTOR('',#59,5.088E0);
#61=CARTESIAN_POINT('',(-4.2E0,-2.94E-1,-2.544E0));
#62=LINE('',#61,#60);
#63=DIRECTION('',(1.E0,0.E0,0.E0));
#64=VECTOR('',#63,8.4E0);
#65=CARTESIAN_POINT('',(-4.2E0,-2.94E-1,2.544E0));
#66=LINE('',#65,#64);
#67=DIRECTION('',(0.E0,0.E0,-1.E0));
#68=VECTOR('',#67,5.088E0);
#69=CARTESIAN_POINT('',(4.2E0,-2.94E-1,2.544E0));
#70=LINE('',#69,#68);
#71=DIRECTION('',(0.E0,-1.E0,0.E0));
#72=VECTOR('',#71,5.88E-1);
#73=CARTESIAN_POINT('',(-4.2E0,2.94E-1,-2.544E0));
#74=LINE('',#73,#72);
#75=DIRECTION('',(0.E0,1.E0,0.E0));
#76=VECTOR('',#75,5.88E-1);
#77=CARTESIAN_POINT('',(4.2E0,-2.94E-1,-2.544E0));
#78=LINE('',#77,#76);
#79=DIRECTION('',(0.E0,1.E0,0.E0));
#80=VECTOR('',#79,6.E-1);
#81=CARTESIAN_POINT('',(4.2E0,-3.E-1,-2.55E0));
#82=LINE('',#81,#80);
#83=DIRECTION('',(0.E0,-1.E0,0.E0));
#84=VECTOR('',#83,6.E-1);
#85=CARTESIAN_POINT('',(4.2E0,3.E-1,2.55E0));
#86=LINE('',#85,#84);
#87=DIRECTION('',(1.E0,0.E0,0.E0));
#88=VECTOR('',#87,8.4E0);
#89=CARTESIAN_POINT('',(-4.2E0,2.94E-1,-2.544E0));
#90=LINE('',#89,#88);
#91=DIRECTION('',(0.E0,0.E0,-1.E0));
#92=VECTOR('',#91,5.088E0);
#93=CARTESIAN_POINT('',(4.2E0,2.94E-1,2.544E0));
#94=LINE('',#93,#92);
#95=DIRECTION('',(1.E0,0.E0,0.E0));
#96=VECTOR('',#95,8.4E0);
#97=CARTESIAN_POINT('',(-4.2E0,2.94E-1,2.544E0));
#98=LINE('',#97,#96);
#99=DIRECTION('',(0.E0,0.E0,1.E0));
#100=VECTOR('',#99,5.088E0);
#101=CARTESIAN_POINT('',(-4.2E0,2.94E-1,-2.544E0));
#102=LINE('',#101,#100);
#103=DIRECTION('',(0.E0,1.E0,0.E0));
#104=VECTOR('',#103,5.88E-1);
#105=CARTESIAN_POINT('',(4.2E0,-2.94E-1,2.544E0));
#106=LINE('',#105,#104);
#107=DIRECTION('',(0.E0,-1.E0,0.E0));
#108=VECTOR('',#107,5.88E-1);
#109=CARTESIAN_POINT('',(-4.2E0,2.94E-1,2.544E0));
#110=LINE('',#109,#108);
#111=DIRECTION('',(0.E0,1.E0,0.E0));
#112=VECTOR('',#111,6.E-1);
#113=CARTESIAN_POINT('',(5.1E0,-3.E-1,-2.55E0));
#114=LINE('',#113,#112);
#115=DIRECTION('',(0.E0,0.E0,-1.E0));
#116=VECTOR('',#115,5.1E0);
#117=CARTESIAN_POINT('',(-4.2E0,3.E-1,2.55E0));
#118=LINE('',#117,#116);
#119=DIRECTION('',(1.E0,0.E0,0.E0));
#120=VECTOR('',#119,9.E-1);
#121=CARTESIAN_POINT('',(-5.1E0,3.E-1,2.55E0));
#122=LINE('',#121,#120);
#123=DIRECTION('',(0.E0,0.E0,1.E0));
#124=VECTOR('',#123,5.1E0);
#125=CARTESIAN_POINT('',(-5.1E0,3.E-1,-2.55E0));
#126=LINE('',#125,#124);
#127=DIRECTION('',(-1.E0,0.E0,0.E0));
#128=VECTOR('',#127,9.E-1);
#129=CARTESIAN_POINT('',(-4.2E0,3.E-1,-2.55E0));
#130=LINE('',#129,#128);
#131=DIRECTION('',(0.E0,0.E0,-1.E0));
#132=VECTOR('',#131,5.1E0);
#133=CARTESIAN_POINT('',(4.2E0,3.E-1,2.55E0));
#134=LINE('',#133,#132);
#135=DIRECTION('',(-1.E0,0.E0,0.E0));
#136=VECTOR('',#135,9.E-1);
#137=CARTESIAN_POINT('',(5.1E0,3.E-1,-2.55E0));
#138=LINE('',#137,#136);
#139=DIRECTION('',(0.E0,0.E0,-1.E0));
#140=VECTOR('',#139,5.1E0);
#141=CARTESIAN_POINT('',(5.1E0,3.E-1,2.55E0));
#142=LINE('',#141,#140);
#143=DIRECTION('',(1.E0,0.E0,0.E0));
#144=VECTOR('',#143,9.E-1);
#145=CARTESIAN_POINT('',(4.2E0,3.E-1,2.55E0));
#146=LINE('',#145,#144);
#147=DIRECTION('',(0.E0,1.E0,0.E0));
#148=VECTOR('',#147,6.E-1);
#149=CARTESIAN_POINT('',(-5.1E0,-3.E-1,2.55E0));
#150=LINE('',#149,#148);
#151=DIRECTION('',(0.E0,1.E0,0.E0));
#152=VECTOR('',#151,6.E-1);
#153=CARTESIAN_POINT('',(-5.1E0,-3.E-1,-2.55E0));
#154=LINE('',#153,#152);
#155=DIRECTION('',(0.E0,1.E0,0.E0));
#156=VECTOR('',#155,6.E-1);
#157=CARTESIAN_POINT('',(5.1E0,-3.E-1,2.55E0));
#158=LINE('',#157,#156);
#159=CARTESIAN_POINT('',(-5.1E0,-3.E-1,-2.55E0));
#160=CARTESIAN_POINT('',(-5.1E0,-3.E-1,2.55E0));
#161=VERTEX_POINT('',#159);
#162=VERTEX_POINT('',#160);
#163=CARTESIAN_POINT('',(5.1E0,-3.E-1,2.55E0));
#164=CARTESIAN_POINT('',(5.1E0,-3.E-1,-2.55E0));
#165=VERTEX_POINT('',#163);
#166=VERTEX_POINT('',#164);
#167=CARTESIAN_POINT('',(-5.1E0,3.E-1,-2.55E0));
#168=CARTESIAN_POINT('',(-5.1E0,3.E-1,2.55E0));
#169=VERTEX_POINT('',#167);
#170=VERTEX_POINT('',#168);
#171=CARTESIAN_POINT('',(5.1E0,3.E-1,2.55E0));
#172=CARTESIAN_POINT('',(5.1E0,3.E-1,-2.55E0));
#173=VERTEX_POINT('',#171);
#174=VERTEX_POINT('',#172);
#175=CARTESIAN_POINT('',(-4.2E0,3.E-1,2.55E0));
#176=CARTESIAN_POINT('',(-4.2E0,3.E-1,-2.55E0));
#177=VERTEX_POINT('',#175);
#178=VERTEX_POINT('',#176);
#179=CARTESIAN_POINT('',(4.2E0,3.E-1,2.55E0));
#180=CARTESIAN_POINT('',(4.2E0,3.E-1,-2.55E0));
#181=VERTEX_POINT('',#179);
#182=VERTEX_POINT('',#180);
#183=CARTESIAN_POINT('',(-4.2E0,-3.E-1,2.55E0));
#184=CARTESIAN_POINT('',(-4.2E0,-3.E-1,-2.55E0));
#185=VERTEX_POINT('',#183);
#186=VERTEX_POINT('',#184);
#187=CARTESIAN_POINT('',(4.2E0,-3.E-1,2.55E0));
#188=CARTESIAN_POINT('',(4.2E0,-3.E-1,-2.55E0));
#189=VERTEX_POINT('',#187);
#190=VERTEX_POINT('',#188);
#191=CARTESIAN_POINT('',(-4.2E0,2.94E-1,2.544E0));
#192=CARTESIAN_POINT('',(4.2E0,2.94E-1,2.544E0));
#193=VERTEX_POINT('',#191);
#194=VERTEX_POINT('',#192);
#195=CARTESIAN_POINT('',(-4.2E0,-2.94E-1,2.544E0));
#196=CARTESIAN_POINT('',(4.2E0,-2.94E-1,2.544E0));
#197=VERTEX_POINT('',#195);
#198=VERTEX_POINT('',#196);
#199=CARTESIAN_POINT('',(-4.2E0,2.94E-1,-2.544E0));
#200=CARTESIAN_POINT('',(-4.2E0,-2.94E-1,-2.544E0));
#201=VERTEX_POINT('',#199);
#202=VERTEX_POINT('',#200);
#203=CARTESIAN_POINT('',(4.2E0,-2.94E-1,-2.544E0));
#204=CARTESIAN_POINT('',(4.2E0,2.94E-1,-2.544E0));
#205=VERTEX_POINT('',#203);
#206=VERTEX_POINT('',#204);
#207=CARTESIAN_POINT('',(0.E0,-3.E-1,0.E0));
#208=DIRECTION('',(0.E0,1.E0,0.E0));
#209=DIRECTION('',(1.E0,0.E0,0.E0));
#210=AXIS2_PLACEMENT_3D('',#207,#208,#209);
#211=PLANE('',#210);
#213=ORIENTED_EDGE('',*,*,#212,.T.);
#215=ORIENTED_EDGE('',*,*,#214,.T.);
#217=ORIENTED_EDGE('',*,*,#216,.T.);
#219=ORIENTED_EDGE('',*,*,#218,.T.);
#220=EDGE_LOOP('',(#213,#215,#217,#219));
#221=FACE_OUTER_BOUND('',#220,.F.);
#223=FILL_AREA_STYLE_COLOUR('',#5);
#224=FILL_AREA_STYLE('',(#223));
#225=SURFACE_STYLE_FILL_AREA(#224);
#226=SURFACE_SIDE_STYLE('',(#225));
#227=SURFACE_STYLE_USAGE(.POSITIVE.,#226);
#228=PRESENTATION_STYLE_ASSIGNMENT((#227));
#229=STYLED_ITEM('',(#228),#222);
#230=CARTESIAN_POINT('',(0.E0,-3.E-1,0.E0));
#231=DIRECTION('',(0.E0,1.E0,0.E0));
#232=DIRECTION('',(1.E0,0.E0,0.E0));
#233=AXIS2_PLACEMENT_3D('',#230,#231,#232);
#234=PLANE('',#233);
#236=ORIENTED_EDGE('',*,*,#235,.F.);
#238=ORIENTED_EDGE('',*,*,#237,.T.);
#240=ORIENTED_EDGE('',*,*,#239,.T.);
#242=ORIENTED_EDGE('',*,*,#241,.T.);
#243=EDGE_LOOP('',(#236,#238,#240,#242));
#244=FACE_OUTER_BOUND('',#243,.F.);
#246=FILL_AREA_STYLE_COLOUR('',#5);
#247=FILL_AREA_STYLE('',(#246));
#248=SURFACE_STYLE_FILL_AREA(#247);
#249=SURFACE_SIDE_STYLE('',(#248));
#250=SURFACE_STYLE_USAGE(.POSITIVE.,#249);
#251=PRESENTATION_STYLE_ASSIGNMENT((#250));
#252=STYLED_ITEM('',(#251),#245);
#253=CARTESIAN_POINT('',(-4.2E0,3.E-1,-2.55E0));
#254=DIRECTION('',(-1.E0,0.E0,0.E0));
#255=DIRECTION('',(0.E0,0.E0,1.E0));
#256=AXIS2_PLACEMENT_3D('',#253,#254,#255);
#257=PLANE('',#256);
#259=ORIENTED_EDGE('',*,*,#258,.T.);
#260=ORIENTED_EDGE('',*,*,#212,.F.);
#262=ORIENTED_EDGE('',*,*,#261,.T.);
#264=ORIENTED_EDGE('',*,*,#263,.T.);
#265=EDGE_LOOP('',(#259,#260,#262,#264));
#266=FACE_OUTER_BOUND('',#265,.F.);
#268=ORIENTED_EDGE('',*,*,#267,.F.);
#270=ORIENTED_EDGE('',*,*,#269,.F.);
#272=ORIENTED_EDGE('',*,*,#271,.T.);
#274=ORIENTED_EDGE('',*,*,#273,.T.);
#275=EDGE_LOOP('',(#268,#270,#272,#274));
#276=FACE_BOUND('',#275,.F.);
#278=CARTESIAN_POINT('',(0.E0,-2.94E-1,0.E0));
#279=DIRECTION('',(0.E0,1.E0,0.E0));
#280=DIRECTION('',(1.E0,0.E0,0.E0));
#281=AXIS2_PLACEMENT_3D('',#278,#279,#280);
#282=PLANE('',#281);
#284=ORIENTED_EDGE('',*,*,#283,.F.);
#285=ORIENTED_EDGE('',*,*,#267,.T.);
#287=ORIENTED_EDGE('',*,*,#286,.T.);
#289=ORIENTED_EDGE('',*,*,#288,.T.);
#290=EDGE_LOOP('',(#284,#285,#287,#289));
#291=FACE_OUTER_BOUND('',#290,.F.);
#293=FILL_AREA_STYLE_COLOUR('',#13);
#294=FILL_AREA_STYLE('',(#293));
#295=SURFACE_STYLE_FILL_AREA(#294);
#296=SURFACE_SIDE_STYLE('',(#295));
#297=SURFACE_STYLE_USAGE(.POSITIVE.,#296);
#298=PRESENTATION_STYLE_ASSIGNMENT((#297));
#299=STYLED_ITEM('',(#298),#292);
#300=CARTESIAN_POINT('',(0.E0,0.E0,-2.544E0));
#301=DIRECTION('',(0.E0,0.E0,1.E0));
#302=DIRECTION('',(1.E0,0.E0,0.E0));
#303=AXIS2_PLACEMENT_3D('',#300,#301,#302);
#304=PLANE('',#303);
#305=ORIENTED_EDGE('',*,*,#269,.T.);
#306=ORIENTED_EDGE('',*,*,#283,.T.);
#308=ORIENTED_EDGE('',*,*,#307,.T.);
#310=ORIENTED_EDGE('',*,*,#309,.F.);
#311=EDGE_LOOP('',(#305,#306,#308,#310));
#312=FACE_OUTER_BOUND('',#311,.F.);
#314=FILL_AREA_STYLE_COLOUR('',#13);
#315=FILL_AREA_STYLE('',(#314));
#316=SURFACE_STYLE_FILL_AREA(#315);
#317=SURFACE_SIDE_STYLE('',(#316));
#318=SURFACE_STYLE_USAGE(.POSITIVE.,#317);
#319=PRESENTATION_STYLE_ASSIGNMENT((#318));
#320=STYLED_ITEM('',(#319),#313);
#321=CARTESIAN_POINT('',(4.2E0,3.E-1,2.55E0));
#322=DIRECTION('',(1.E0,0.E0,0.E0));
#323=DIRECTION('',(0.E0,0.E0,-1.E0));
#324=AXIS2_PLACEMENT_3D('',#321,#322,#323);
#325=PLANE('',#324);
#327=ORIENTED_EDGE('',*,*,#326,.T.);
#329=ORIENTED_EDGE('',*,*,#328,.F.);
#331=ORIENTED_EDGE('',*,*,#330,.T.);
#332=ORIENTED_EDGE('',*,*,#235,.T.);
#333=EDGE_LOOP('',(#327,#329,#331,#332));
#334=FACE_OUTER_BOUND('',#333,.F.);
#336=ORIENTED_EDGE('',*,*,#335,.T.);
#337=ORIENTED_EDGE('',*,*,#307,.F.);
#338=ORIENTED_EDGE('',*,*,#288,.F.);
#340=ORIENTED_EDGE('',*,*,#339,.T.);
#341=EDGE_LOOP('',(#336,#337,#338,#340));
#342=FACE_BOUND('',#341,.F.);
#344=CARTESIAN_POINT('',(0.E0,2.94E-1,0.E0));
#345=DIRECTION('',(0.E0,1.E0,0.E0));
#346=DIRECTION('',(1.E0,0.E0,0.E0));
#347=AXIS2_PLACEMENT_3D('',#344,#345,#346);
#348=PLANE('',#347);
#349=ORIENTED_EDGE('',*,*,#309,.T.);
#350=ORIENTED_EDGE('',*,*,#335,.F.);
#352=ORIENTED_EDGE('',*,*,#351,.F.);
#353=ORIENTED_EDGE('',*,*,#271,.F.);
#354=EDGE_LOOP('',(#349,#350,#352,#353));
#355=FACE_OUTER_BOUND('',#354,.F.);
#357=FILL_AREA_STYLE_COLOUR('',#13);
#358=FILL_AREA_STYLE('',(#357));
#359=SURFACE_STYLE_FILL_AREA(#358);
#360=SURFACE_SIDE_STYLE('',(#359));
#361=SURFACE_STYLE_USAGE(.POSITIVE.,#360);
#362=PRESENTATION_STYLE_ASSIGNMENT((#361));
#363=STYLED_ITEM('',(#362),#356);
#364=CARTESIAN_POINT('',(0.E0,0.E0,2.544E0));
#365=DIRECTION('',(0.E0,0.E0,1.E0));
#366=DIRECTION('',(1.E0,0.E0,0.E0));
#367=AXIS2_PLACEMENT_3D('',#364,#365,#366);
#368=PLANE('',#367);
#369=ORIENTED_EDGE('',*,*,#351,.T.);
#370=ORIENTED_EDGE('',*,*,#339,.F.);
#371=ORIENTED_EDGE('',*,*,#286,.F.);
#372=ORIENTED_EDGE('',*,*,#273,.F.);
#373=EDGE_LOOP('',(#369,#370,#371,#372));
#374=FACE_OUTER_BOUND('',#373,.F.);
#376=FILL_AREA_STYLE_COLOUR('',#13);
#377=FILL_AREA_STYLE('',(#376));
#378=SURFACE_STYLE_FILL_AREA(#377);
#379=SURFACE_SIDE_STYLE('',(#378));
#380=SURFACE_STYLE_USAGE(.POSITIVE.,#379);
#381=PRESENTATION_STYLE_ASSIGNMENT((#380));
#382=STYLED_ITEM('',(#381),#375);
#383=CARTESIAN_POINT('',(5.1E0,-3.E-1,-2.55E0));
#384=DIRECTION('',(0.E0,0.E0,-1.E0));
#385=DIRECTION('',(-1.E0,0.E0,0.E0));
#386=AXIS2_PLACEMENT_3D('',#383,#384,#385);
#387=PLANE('',#386);
#388=ORIENTED_EDGE('',*,*,#258,.F.);
#390=ORIENTED_EDGE('',*,*,#389,.T.);
#392=ORIENTED_EDGE('',*,*,#391,.F.);
#393=ORIENTED_EDGE('',*,*,#214,.F.);
#394=EDGE_LOOP('',(#388,#390,#392,#393));
#395=FACE_OUTER_BOUND('',#394,.F.);
#397=FILL_AREA_STYLE_COLOUR('',#5);
#398=FILL_AREA_STYLE('',(#397));
#399=SURFACE_STYLE_FILL_AREA(#398);
#400=SURFACE_SIDE_STYLE('',(#399));
#401=SURFACE_STYLE_USAGE(.POSITIVE.,#400);
#402=PRESENTATION_STYLE_ASSIGNMENT((#401));
#403=STYLED_ITEM('',(#402),#396);
#404=CARTESIAN_POINT('',(5.1E0,-3.E-1,-2.55E0));
#405=DIRECTION('',(0.E0,0.E0,-1.E0));
#406=DIRECTION('',(-1.E0,0.E0,0.E0));
#407=AXIS2_PLACEMENT_3D('',#404,#405,#406);
#408=PLANE('',#407);
#409=ORIENTED_EDGE('',*,*,#326,.F.);
#410=ORIENTED_EDGE('',*,*,#241,.F.);
#412=ORIENTED_EDGE('',*,*,#411,.T.);
#414=ORIENTED_EDGE('',*,*,#413,.T.);
#415=EDGE_LOOP('',(#409,#410,#412,#414));
#416=FACE_OUTER_BOUND('',#415,.F.);
#418=FILL_AREA_STYLE_COLOUR('',#5);
#419=FILL_AREA_STYLE('',(#418));
#420=SURFACE_STYLE_FILL_AREA(#419);
#421=SURFACE_SIDE_STYLE('',(#420));
#422=SURFACE_STYLE_USAGE(.POSITIVE.,#421);
#423=PRESENTATION_STYLE_ASSIGNMENT((#422));
#424=STYLED_ITEM('',(#423),#417);
#425=CARTESIAN_POINT('',(0.E0,3.E-1,0.E0));
#426=DIRECTION('',(0.E0,1.E0,0.E0));
#427=DIRECTION('',(1.E0,0.E0,0.E0));
#428=AXIS2_PLACEMENT_3D('',#425,#426,#427);
#429=PLANE('',#428);
#430=ORIENTED_EDGE('',*,*,#263,.F.);
#432=ORIENTED_EDGE('',*,*,#431,.F.);
#434=ORIENTED_EDGE('',*,*,#433,.F.);
#435=ORIENTED_EDGE('',*,*,#389,.F.);
#436=EDGE_LOOP('',(#430,#432,#434,#435));
#437=FACE_OUTER_BOUND('',#436,.F.);
#439=FILL_AREA_STYLE_COLOUR('',#5);
#440=FILL_AREA_STYLE('',(#439));
#441=SURFACE_STYLE_FILL_AREA(#440);
#442=SURFACE_SIDE_STYLE('',(#441));
#443=SURFACE_STYLE_USAGE(.POSITIVE.,#442);
#444=PRESENTATION_STYLE_ASSIGNMENT((#443));
#445=STYLED_ITEM('',(#444),#438);
#446=CARTESIAN_POINT('',(0.E0,3.E-1,0.E0));
#447=DIRECTION('',(0.E0,1.E0,0.E0));
#448=DIRECTION('',(1.E0,0.E0,0.E0));
#449=AXIS2_PLACEMENT_3D('',#446,#447,#448);
#450=PLANE('',#449);
#451=ORIENTED_EDGE('',*,*,#328,.T.);
#452=ORIENTED_EDGE('',*,*,#413,.F.);
#454=ORIENTED_EDGE('',*,*,#453,.F.);
#456=ORIENTED_EDGE('',*,*,#455,.F.);
#457=EDGE_LOOP('',(#451,#452,#454,#456));
#458=FACE_OUTER_BOUND('',#457,.F.);
#460=FILL_AREA_STYLE_COLOUR('',#5);
#461=FILL_AREA_STYLE('',(#460));
#462=SURFACE_STYLE_FILL_AREA(#461);
#463=SURFACE_SIDE_STYLE('',(#462));
#464=SURFACE_STYLE_USAGE(.POSITIVE.,#463);
#465=PRESENTATION_STYLE_ASSIGNMENT((#464));
#466=STYLED_ITEM('',(#465),#459);
#467=CARTESIAN_POINT('',(-5.1E0,-3.E-1,2.55E0));
#468=DIRECTION('',(0.E0,0.E0,1.E0));
#469=DIRECTION('',(1.E0,0.E0,0.E0));
#470=AXIS2_PLACEMENT_3D('',#467,#468,#469);
#471=PLANE('',#470);
#472=ORIENTED_EDGE('',*,*,#261,.F.);
#473=ORIENTED_EDGE('',*,*,#218,.F.);
#475=ORIENTED_EDGE('',*,*,#474,.T.);
#476=ORIENTED_EDGE('',*,*,#431,.T.);
#477=EDGE_LOOP('',(#472,#473,#475,#476));
#478=FACE_OUTER_BOUND('',#477,.F.);
#480=FILL_AREA_STYLE_COLOUR('',#5);
#481=FILL_AREA_STYLE('',(#480));
#482=SURFACE_STYLE_FILL_AREA(#481);
#483=SURFACE_SIDE_STYLE('',(#482));
#484=SURFACE_STYLE_USAGE(.POSITIVE.,#483);
#485=PRESENTATION_STYLE_ASSIGNMENT((#484));
#486=STYLED_ITEM('',(#485),#479);
#487=CARTESIAN_POINT('',(-5.1E0,-3.E-1,2.55E0));
#488=DIRECTION('',(0.E0,0.E0,1.E0));
#489=DIRECTION('',(1.E0,0.E0,0.E0));
#490=AXIS2_PLACEMENT_3D('',#487,#488,#489);
#491=PLANE('',#490);
#492=ORIENTED_EDGE('',*,*,#330,.F.);
#493=ORIENTED_EDGE('',*,*,#455,.T.);
#495=ORIENTED_EDGE('',*,*,#494,.F.);
#496=ORIENTED_EDGE('',*,*,#237,.F.);
#497=EDGE_LOOP('',(#492,#493,#495,#496));
#498=FACE_OUTER_BOUND('',#497,.F.);
#500=FILL_AREA_STYLE_COLOUR('',#5);
#501=FILL_AREA_STYLE('',(#500));
#502=SURFACE_STYLE_FILL_AREA(#501);
#503=SURFACE_SIDE_STYLE('',(#502));
#504=SURFACE_STYLE_USAGE(.POSITIVE.,#503);
#505=PRESENTATION_STYLE_ASSIGNMENT((#504));
#506=STYLED_ITEM('',(#505),#499);
#507=CARTESIAN_POINT('',(-5.1E0,-3.E-1,-2.55E0));
#508=DIRECTION('',(-1.E0,0.E0,0.E0));
#509=DIRECTION('',(0.E0,0.E0,1.E0));
#510=AXIS2_PLACEMENT_3D('',#507,#508,#509);
#511=PLANE('',#510);
#512=ORIENTED_EDGE('',*,*,#216,.F.);
#513=ORIENTED_EDGE('',*,*,#391,.T.);
#514=ORIENTED_EDGE('',*,*,#433,.T.);
#515=ORIENTED_EDGE('',*,*,#474,.F.);
#516=EDGE_LOOP('',(#512,#513,#514,#515));
#517=FACE_OUTER_BOUND('',#516,.F.);
#519=FILL_AREA_STYLE_COLOUR('',#5);
#520=FILL_AREA_STYLE('',(#519));
#521=SURFACE_STYLE_FILL_AREA(#520);
#522=SURFACE_SIDE_STYLE('',(#521));
#523=SURFACE_STYLE_USAGE(.POSITIVE.,#522);
#524=PRESENTATION_STYLE_ASSIGNMENT((#523));
#525=STYLED_ITEM('',(#524),#518);
#526=CARTESIAN_POINT('',(5.1E0,-3.E-1,2.55E0));
#527=DIRECTION('',(1.E0,0.E0,0.E0));
#528=DIRECTION('',(0.E0,0.E0,-1.E0));
#529=AXIS2_PLACEMENT_3D('',#526,#527,#528);
#530=PLANE('',#529);
#531=ORIENTED_EDGE('',*,*,#239,.F.);
#532=ORIENTED_EDGE('',*,*,#494,.T.);
#533=ORIENTED_EDGE('',*,*,#453,.T.);
#534=ORIENTED_EDGE('',*,*,#411,.F.);
#535=EDGE_LOOP('',(#531,#532,#533,#534));
#536=FACE_OUTER_BOUND('',#535,.F.);
#538=CLOSED_SHELL('',(#222,#245,#277,#292,#313,#343,#356,#375,#396,#417,#438,
#459,#479,#499,#518,#537));
#539=MANIFOLD_SOLID_BREP('',#538);
#541=LENGTH_MEASURE_WITH_UNIT(LENGTH_MEASURE(2.54E1),#540);
#542=(CONVERSION_BASED_UNIT('INCH',#541)LENGTH_UNIT()NAMED_UNIT(*));
#544=PLANE_ANGLE_MEASURE_WITH_UNIT(PLANE_ANGLE_MEASURE(1.745329251994E-2),#543);
#545=(CONVERSION_BASED_UNIT('DEGREE',#544)NAMED_UNIT(*)PLANE_ANGLE_UNIT());
#547=UNCERTAINTY_MEASURE_WITH_UNIT(LENGTH_MEASURE(1.141926299761E-3),#542,
'distance_accuracy_value',
'Maximum model space distance between geometric entities at asserted connectivities');
#550=MECHANICAL_DESIGN_GEOMETRIC_PRESENTATION_REPRESENTATION('',(#229,#252,#299,
#320,#363,#382,#403,#424,#445,#466,#486,#506,#525),#548);
#551=APPLICATION_CONTEXT('automotive_design');
#552=APPLICATION_PROTOCOL_DEFINITION('international standard',
'automotive_design',2001,#551);
#553=PRODUCT_DEFINITION_CONTEXT('part definition',#551,'design');
#554=PRODUCT_CONTEXT('',#551,'mechanical');
#555=PRODUCT('HVC_4020','HVC_4020','NOT SPECIFIED',(#554));
#556=PRODUCT_DEFINITION_FORMATION('1','LAST_VERSION',#555);
#564=LENGTH_MEASURE_WITH_UNIT(LENGTH_MEASURE(2.54E1),#563);
#565=(CONVERSION_BASED_UNIT('INCH',#564)LENGTH_UNIT()NAMED_UNIT(*));
#566=DERIVED_UNIT_ELEMENT(#565,2.E0);
#567=DERIVED_UNIT((#566));
#568=MEASURE_REPRESENTATION_ITEM('surface area measure',AREA_MEASURE(
1.22133312E2),#567);
#573=LENGTH_MEASURE_WITH_UNIT(LENGTH_MEASURE(2.54E1),#572);
#574=(CONVERSION_BASED_UNIT('INCH',#573)LENGTH_UNIT()NAMED_UNIT(*));
#575=DERIVED_UNIT_ELEMENT(#574,3.E0);
#576=DERIVED_UNIT((#575));
#577=MEASURE_REPRESENTATION_ITEM('volume measure',VOLUME_MEASURE(3.06386496E1),
#576);
#581=CARTESIAN_POINT('centre point',(0.E0,0.E0,0.E0));
#586=LENGTH_MEASURE_WITH_UNIT(LENGTH_MEASURE(2.54E1),#585);
#587=(CONVERSION_BASED_UNIT('INCH',#586)LENGTH_UNIT()NAMED_UNIT(*));
#588=DERIVED_UNIT_ELEMENT(#587,2.E0);
#589=DERIVED_UNIT((#588));
#590=MEASURE_REPRESENTATION_ITEM('surface area measure',AREA_MEASURE(
1.22133312E2),#589);
#595=LENGTH_MEASURE_WITH_UNIT(LENGTH_MEASURE(2.54E1),#594);
#596=(CONVERSION_BASED_UNIT('INCH',#595)LENGTH_UNIT()NAMED_UNIT(*));
#597=DERIVED_UNIT_ELEMENT(#596,3.E0);
#598=DERIVED_UNIT((#597));
#599=MEASURE_REPRESENTATION_ITEM('volume measure',VOLUME_MEASURE(3.06386496E1),
#598);
#603=CARTESIAN_POINT('centre point',(0.E0,0.E0,0.E0));
#608=PRODUCT_RELATED_PRODUCT_CATEGORY('part','',(#555));
#610=GENERAL_PROPERTY('','DESCRIPTION','user defined attribute');
#611=GENERAL_PROPERTY_ASSOCIATION('user defined attribute','',#610,#609);
#612=DESCRIPTIVE_REPRESENTATION_ITEM('DESCRIPTION','');
#616=GENERAL_PROPERTY('','MODELED_BY','user defined attribute');
#617=GENERAL_PROPERTY_ASSOCIATION('user defined attribute','',#616,#615);
#618=DESCRIPTIVE_REPRESENTATION_ITEM('MODELED_BY','');
#622=GENERAL_PROPERTY('','L','user defined attribute');
#623=GENERAL_PROPERTY_ASSOCIATION('user defined attribute','',#622,#621);
#624=VALUE_REPRESENTATION_ITEM('L',NUMERIC_MEASURE(1.02E1));
#627=DESCRIPTIVE_REPRESENTATION_ITEM('attribute description','Real Number');
#632=GENERAL_PROPERTY('','W','user defined attribute');
#633=GENERAL_PROPERTY_ASSOCIATION('user defined attribute','',#632,#631);
#634=VALUE_REPRESENTATION_ITEM('W',NUMERIC_MEASURE(5.1E0));
#637=DESCRIPTIVE_REPRESENTATION_ITEM('attribute description','Real Number');
#642=GENERAL_PROPERTY('','T','user defined attribute');
#643=GENERAL_PROPERTY_ASSOCIATION('user defined attribute','',#642,#641);
#644=VALUE_REPRESENTATION_ITEM('T',NUMERIC_MEASURE(6.E-1));
#647=DESCRIPTIVE_REPRESENTATION_ITEM('attribute description','Real Number');
#652=GENERAL_PROPERTY('','A','user defined attribute');
#653=GENERAL_PROPERTY_ASSOCIATION('user defined attribute','',#652,#651);
#654=VALUE_REPRESENTATION_ITEM('A',NUMERIC_MEASURE(9.E-1));
#657=DESCRIPTIVE_REPRESENTATION_ITEM('attribute description','Real Number');
#1=DRAUGHTING_PRE_DEFINED_COLOUR('green');
#2=COLOUR_RGB('',1.1E-2,1.2E-2,1.E0);
#3=COLOUR_RGB('',3.92E-1,1.2E-2,1.2E-2);
#4=COLOUR_RGB('',4.1E-1,0.E0,2.2E-1);
#5=COLOUR_RGB('',6.E-1,6.E-1,6.E-1);
#6=COLOUR_RGB('',6.952E-1,7.426E-1,7.9E-1);
#7=COLOUR_RGB('',7.84314E-1,7.84314E-1,7.84314E-1);
#8=COLOUR_RGB('',8.784E-1,9.49E-1,1.E0);
#9=COLOUR_RGB('',9.6E-1,9.6E-1,9.6E-1);
#10=COLOUR_RGB('',9.8E-1,6.27E-1,0.E0);
#11=DRAUGHTING_PRE_DEFINED_COLOUR('red');
#12=DRAUGHTING_PRE_DEFINED_COLOUR('yellow');
#13=COLOUR_RGB('',1.E0,1.E0,9.49E-1);
#14=DRAUGHTING_PRE_DEFINED_COLOUR('white');
#212=EDGE_CURVE('',#185,#186,#18,.T.);
#214=EDGE_CURVE('',#186,#161,#22,.T.);
#216=EDGE_CURVE('',#161,#162,#26,.T.);
#218=EDGE_CURVE('',#162,#185,#30,.T.);
#222=ADVANCED_FACE('',(#221),#211,.F.);
#235=EDGE_CURVE('',#189,#190,#34,.T.);
#237=EDGE_CURVE('',#189,#165,#38,.T.);
#239=EDGE_CURVE('',#165,#166,#42,.T.);
#241=EDGE_CURVE('',#166,#190,#46,.T.);
#245=ADVANCED_FACE('',(#244),#234,.F.);
#258=EDGE_CURVE('',#178,#186,#50,.T.);
#261=EDGE_CURVE('',#185,#177,#54,.T.);
#263=EDGE_CURVE('',#177,#178,#118,.T.);
#267=EDGE_CURVE('',#202,#197,#62,.T.);
#269=EDGE_CURVE('',#201,#202,#74,.T.);
#271=EDGE_CURVE('',#201,#193,#102,.T.);
#273=EDGE_CURVE('',#193,#197,#110,.T.);
#277=ADVANCED_FACE('',(#266,#276),#257,.F.);
#283=EDGE_CURVE('',#202,#205,#58,.T.);
#286=EDGE_CURVE('',#197,#198,#66,.T.);
#288=EDGE_CURVE('',#198,#205,#70,.T.);
#292=ADVANCED_FACE('',(#291),#282,.F.);
#307=EDGE_CURVE('',#205,#206,#78,.T.);
#309=EDGE_CURVE('',#201,#206,#90,.T.);
#313=ADVANCED_FACE('',(#312),#304,.F.);
#326=EDGE_CURVE('',#190,#182,#82,.T.);
#328=EDGE_CURVE('',#181,#182,#134,.T.);
#330=EDGE_CURVE('',#181,#189,#86,.T.);
#335=EDGE_CURVE('',#194,#206,#94,.T.);
#339=EDGE_CURVE('',#198,#194,#106,.T.);
#343=ADVANCED_FACE('',(#334,#342),#325,.F.);
#351=EDGE_CURVE('',#193,#194,#98,.T.);
#356=ADVANCED_FACE('',(#355),#348,.T.);
#375=ADVANCED_FACE('',(#374),#368,.T.);
#389=EDGE_CURVE('',#178,#169,#130,.T.);
#391=EDGE_CURVE('',#161,#169,#154,.T.);
#396=ADVANCED_FACE('',(#395),#387,.T.);
#411=EDGE_CURVE('',#166,#174,#114,.T.);
#413=EDGE_CURVE('',#174,#182,#138,.T.);
#417=ADVANCED_FACE('',(#416),#408,.T.);
#431=EDGE_CURVE('',#170,#177,#122,.T.);
#433=EDGE_CURVE('',#169,#170,#126,.T.);
#438=ADVANCED_FACE('',(#437),#429,.T.);
#453=EDGE_CURVE('',#173,#174,#142,.T.);
#455=EDGE_CURVE('',#181,#173,#146,.T.);
#459=ADVANCED_FACE('',(#458),#450,.T.);
#474=EDGE_CURVE('',#162,#170,#150,.T.);
#479=ADVANCED_FACE('',(#478),#471,.T.);
#494=EDGE_CURVE('',#165,#173,#158,.T.);
#499=ADVANCED_FACE('',(#498),#491,.T.);
#518=ADVANCED_FACE('',(#517),#511,.T.);
#537=ADVANCED_FACE('',(#536),#530,.T.);
#540=(LENGTH_UNIT()NAMED_UNIT(*)SI_UNIT(.MILLI.,.METRE.));
#543=(NAMED_UNIT(*)PLANE_ANGLE_UNIT()SI_UNIT($,.RADIAN.));
#546=(NAMED_UNIT(*)SI_UNIT($,.STERADIAN.)SOLID_ANGLE_UNIT());
#548=(GEOMETRIC_REPRESENTATION_CONTEXT(3)GLOBAL_UNCERTAINTY_ASSIGNED_CONTEXT((
#547))GLOBAL_UNIT_ASSIGNED_CONTEXT((#542,#545,#546))REPRESENTATION_CONTEXT
('ID1','3'));
#549=ADVANCED_BREP_SHAPE_REPRESENTATION('',(#539),#548);
#557=PRODUCT_DEFINITION('part definition','',#556,#553);
#558=PRODUCT_DEFINITION_SHAPE('','SHAPE FOR HVC_4020.',#557);
#559=SHAPE_ASPECT('','solid data associated with HVC_4020',#558,.F.);
#560=PROPERTY_DEFINITION('',
'shape for solid data with which properties are associated',#559);
#561=SHAPE_REPRESENTATION('',(#539),#548);
#562=SHAPE_DEFINITION_REPRESENTATION(#560,#561);
#563=(LENGTH_UNIT()NAMED_UNIT(*)SI_UNIT(.MILLI.,.METRE.));
#569=PROPERTY_DEFINITION('geometric validation property','area of HVC_4020',
#559);
#570=REPRESENTATION('surface area',(#568),#548);
#571=PROPERTY_DEFINITION_REPRESENTATION(#569,#570);
#572=(LENGTH_UNIT()NAMED_UNIT(*)SI_UNIT(.MILLI.,.METRE.));
#578=PROPERTY_DEFINITION('geometric validation property','volume of HVC_4020',
#559);
#579=REPRESENTATION('volume',(#577),#548);
#580=PROPERTY_DEFINITION_REPRESENTATION(#578,#579);
#582=PROPERTY_DEFINITION('geometric validation property','centroid of HVC_4020',
#559);
#583=REPRESENTATION('centroid',(#581),#548);
#584=PROPERTY_DEFINITION_REPRESENTATION(#582,#583);
#585=(LENGTH_UNIT()NAMED_UNIT(*)SI_UNIT(.MILLI.,.METRE.));
#591=PROPERTY_DEFINITION('geometric validation property','area of HVC_4020',
#558);
#592=REPRESENTATION('surface area',(#590),#548);
#593=PROPERTY_DEFINITION_REPRESENTATION(#591,#592);
#594=(LENGTH_UNIT()NAMED_UNIT(*)SI_UNIT(.MILLI.,.METRE.));
#600=PROPERTY_DEFINITION('geometric validation property','volume of HVC_4020',
#558);
#601=REPRESENTATION('volume',(#599),#548);
#602=PROPERTY_DEFINITION_REPRESENTATION(#600,#601);
#604=PROPERTY_DEFINITION('geometric validation property','centroid of HVC_4020',
#558);
#605=REPRESENTATION('centroid',(#603),#548);
#606=PROPERTY_DEFINITION_REPRESENTATION(#604,#605);
#607=SHAPE_DEFINITION_REPRESENTATION(#558,#549);
#609=PROPERTY_DEFINITION('DESCRIPTION','user defined attribute',#557);
#613=REPRESENTATION('',(#612),#548);
#614=PROPERTY_DEFINITION_REPRESENTATION(#609,#613);
#615=PROPERTY_DEFINITION('MODELED_BY','user defined attribute',#557);
#619=REPRESENTATION('',(#618),#548);
#620=PROPERTY_DEFINITION_REPRESENTATION(#615,#619);
#621=PROPERTY_DEFINITION('L','user defined attribute',#557);
#625=REPRESENTATION('',(#624),#548);
#626=PROPERTY_DEFINITION_REPRESENTATION(#621,#625);
#628=REPRESENTATION('',(#627),#548);
#629=PROPERTY_DEFINITION('attribute type designation','Real Number',#622);
#630=PROPERTY_DEFINITION_REPRESENTATION(#629,#628);
#631=PROPERTY_DEFINITION('W','user defined attribute',#557);
#635=REPRESENTATION('',(#634),#548);
#636=PROPERTY_DEFINITION_REPRESENTATION(#631,#635);
#638=REPRESENTATION('',(#637),#548);
#639=PROPERTY_DEFINITION('attribute type designation','Real Number',#632);
#640=PROPERTY_DEFINITION_REPRESENTATION(#639,#638);
#641=PROPERTY_DEFINITION('T','user defined attribute',#557);
#645=REPRESENTATION('',(#644),#548);
#646=PROPERTY_DEFINITION_REPRESENTATION(#641,#645);
#648=REPRESENTATION('',(#647),#548);
#649=PROPERTY_DEFINITION('attribute type designation','Real Number',#642);
#650=PROPERTY_DEFINITION_REPRESENTATION(#649,#648);
#651=PROPERTY_DEFINITION('A','user defined attribute',#557);
#655=REPRESENTATION('',(#654),#548);
#656=PROPERTY_DEFINITION_REPRESENTATION(#651,#655);
#658=REPRESENTATION('',(#657),#548);
#659=PROPERTY_DEFINITION('attribute type designation','Real Number',#652);
#660=PROPERTY_DEFINITION_REPRESENTATION(#659,#658);
ENDSEC;
END-ISO-10303-21;
