0
SECTION
2
HEADER
9
$INSUNITS
70
4
9
$ACADVER
1
AC1014
9
$HANDSEED
5
FFFF
0
ENDSEC
0
SECTION
2
TABLES
0
TABLE
2
VPORT
5
8
100
AcDbSymbolTable
0
ENDTAB
0
TABLE
2
LTYPE
5
5
100
AcDbSymbolTable
0
LTYPE
5
14
100
AcDbSymbolTableRecord
100
AcDbLinetypeTableRecord
2
BYBLOCK
70
0
0
LTYPE
5
15
100
AcDbSymbolTableRecord
100
AcDbLinetypeTableRecord
2
BYLAYER
70
0
0
LTYPE
5
16
100
AcDbSymbolTableRecord
100
AcDbLinetypeTableRecord
2
DASHED
70
0
3
Dashed __ __ __ __ __ __ __ __ __ __ __ __ __ _
72
65
73
2
40
0.75
49
0.5
74
0
49
-0.25
74
0
0
ENDTAB
0
TABLE
2
LAYER
5
2
100
AcDbSymbolTable
70
2
0
LAYER
5
50
100
AcDbSymbolTableRecord
100
AcDbLayerTableRecord
2
0
70
0
62
7
6
CONTINUOUS
0
ENDTAB
0
TABLE
2
STYLE
5
3
100
AcDbSymbolTable
70
1
0
STYLE
5
11
100
AcDbSymbolTableRecord
100
AcDbTextStyleTableRecord
2
STANDARD
70
0
0
ENDTAB
0
TABLE
2
VIEW
5
6
100
AcDbSymbolTable
70
0
0
ENDTAB
0
TABLE
2
UCS
5
7
100
AcDbSymbolTable
70
0
0
ENDTAB
0
TABLE
2
APPID
5
9
100
AcDbSymbolTable
70
2
0
APPID
5
12
100
AcDbSymbolTableRecord
100
AcDbRegAppTableRecord
2
ACAD
70
0
0
ENDTAB
0
TABLE
2
DIMSTYLE
5
A
100
AcDbSymbolTable
70
1
0
ENDTAB
0
TABLE
2
BLOCK_RECORD
5
1
100
AcDbSymbolTable
70
1
0
BLOCK_RECORD
5
1F
100
AcDbSymbolTableRecord
100
AcDbBlockTableRecord
2
*MODEL_SPACE
0
BLOCK_RECORD
5
1B
100
AcDbSymbolTableRecord
100
AcDbBlockTableRecord
2
*PAPER_SPACE
0
ENDTAB
0
ENDSEC
0
SECTION
2
BLOCKS
0
BLOCK
5
20
100
AcDbEntity
100
AcDbBlockBegin
2
*MODEL_SPACE
0
ENDBLK
5
21
100
AcDbEntity
100
AcDbBlockEnd
0
BLOCK
5
1C
100
AcDbEntity
100
AcDbBlockBegin
2
*PAPER_SPACE
0
ENDBLK
5
1D
100
AcDbEntity
100
AcDbBlockEnd
0
ENDSEC
0
SECTION
2
ENTITIES
0
ARC
5
100
100
AcDbEntity
8
0
100
AcDbCircle
10
4.0194178907858991
20
2.2642086584452419
30
0
40
1.4870999114395156
210
0
220
-0
230
1
100
AcDbArc
50
36.066350309349566
51
89.999507205080519
0
ARC
5
101
100
AcDbEntity
8
0
100
AcDbCircle
10
-2.3566802314456003
20
81.407833400056703
30
0
40
77.917845446840289
210
0
220
0
230
1
100
AcDbArc
50
272.20927876370098
51
274.69383103874623
0
ARC
5
102
100
AcDbEntity
8
0
100
AcDbCircle
10
1.0209556593563129
20
-6.1448845276898636
30
0
40
9.6999999999999815
210
0
220
0
230
1
100
AcDbArc
50
92.209278763701022
51
109.76718132597588
0
ARC
5
103
100
AcDbEntity
8
0
100
AcDbCircle
10
2.3063892299116917
20
-5.4013254084700595
30
0
40
2.8613375979967599
210
0
220
0
230
1
100
AcDbArc
50
98.839096750350208
51
114.87844737441077
0
ARC
5
104
100
AcDbEntity
8
0
100
AcDbCircle
10
-16.324000293426913
20
33.869204509412796
30
0
40
40.730910847114103
210
0
220
0
230
1
100
AcDbArc
50
296.52620967582999
51
300.39852459236619
0
ARC
5
105
100
AcDbEntity
8
0
100
AcDbCircle
10
-18.687747783086838
20
40.223794747128814
30
0
40
47.422599165006993
210
0
220
0
230
1
100
AcDbArc
50
298.97669389229895
51
300.49262935568163
0
ARC
5
106
100
AcDbEntity
8
0
100
AcDbCircle
10
4.6809504467328011
20
0.58024251691264406
30
0
40
1.4041988380387487
210
0
220
0
230
1
100
AcDbArc
50
299.6582501178645
51
336.61350829458229
0
ARC
5
107
100
AcDbEntity
8
0
100
AcDbCircle
10
3.6887791028043981
20
0.45407704727635601
30
0
40
2.3214127690428117
210
0
220
0
230
1
100
AcDbArc
50
-10.704934201211421
51
16.017081027362075
0
ARC
5
108
100
AcDbEntity
8
0
100
AcDbCircle
10
0.18342126115209245
20
0.30652940110469701
30
0
40
5.7905310278976438
210
0
220
-0
230
1
100
AcDbArc
50
7.8221292174966033
51
13.010803257434009
0
ARC
5
109
100
AcDbEntity
8
0
100
AcDbCircle
10
7.5058809526238024
20
3.1575563950752903
30
0
40
2.2844568115031567
210
0
220
0
230
1
100
AcDbArc
50
180.44793865722929
51
222.63691840149255
0
ARC
5
110
100
AcDbEntity
8
0
100
AcDbCircle
10
-1.0198228091235473
20
-6.7163024988642208
30
0
40
9.6999999999999993
210
0
220
0
230
1
100
AcDbArc
50
101.51731158844156
51
119.07521415071652
0
ARC
5
111
100
AcDbEntity
8
0
100
AcDbCircle
10
-43.598358419819988
20
69.860163507311881
30
0
40
77.917845446840261
210
0
220
0
230
1
100
AcDbArc
50
296.59066187567123
51
299.07521415071648
0
ARC
5
112
100
AcDbEntity
8
0
100
AcDbCircle
10
-7.9490466376854645
20
-1.086961409526739
30
0
40
1.487099911439524
210
0
220
0
230
1
100
AcDbArc
50
121.2849857093361
51
175.21814260506801
0
ARC
5
113
100
AcDbEntity
8
0
100
AcDbCircle
10
-11.39248051222426
20
-2.133984815082167
30
0
40
2.2844568115031585
210
0
220
0
230
1
100
AcDbArc
50
-11.352425487075134
51
30.836554257187633
0
ARC
5
114
100
AcDbEntity
8
0
100
AcDbCircle
10
-6.7265036023939873
20
-2.4622021101791915
30
0
40
2.3214127690426913
210
0
220
0
230
1
100
AcDbArc
50
195.26741188705526
51
221.9894271156281
0
ARC
5
115
100
AcDbEntity
8
0
100
AcDbCircle
10
-3.6542071736821069
20
-0.76800656064888084
30
0
40
5.790531027897643
210
0
220
0
230
1
100
AcDbArc
50
198.27368965698341
51
203.46236369692076
0
ARC
5
116
100
AcDbEntity
8
0
100
AcDbCircle
10
-7.6399288375207819
20
-2.8696036826783593
30
0
40
1.4041988380386505
210
0
220
0
230
1
100
AcDbArc
50
234.67098461983491
51
271.62624279655353
0
ARC
5
117
100
AcDbEntity
8
0
100
AcDbCircle
10
-8.2554675618524502
20
43.14483320907442
30
0
40
47.422599165006865
210
0
220
0
230
1
100
AcDbArc
50
270.79186355873588
51
272.3077990221185
0
ARC
5
118
100
AcDbEntity
8
0
100
AcDbCircle
10
-6.9756633642908987
20
36.486738849570884
30
0
40
40.730910847114146
210
0
220
0
230
1
100
AcDbArc
50
270.88596832205127
51
274.75828323858747
0
ARC
5
119
100
AcDbEntity
8
0
100
AcDbCircle
10
-2.5044747799942213
20
-6.7483673312437169
30
0
40
2.861337597996791
210
0
220
0
230
1
100
AcDbArc
50
96.406045540006687
51
112.44539616406753
0
SPLINE
5
120
100
AcDbEntity
8
0
100
AcDbSpline
70
4
71
5
72
16
73
10
74
0
42
0.000000001
43
0.0000000001
44
0.0000000001
40
0
40
0
40
0
40
0
40
0
40
0
40
0.20000000000000001
40
0.40000000000000002
40
0.60000000000000009
40
0.80000000000000004
40
1
40
1
40
1
40
1
40
1
40
1
41
1
41
1
41
1
41
1
41
1
41
1
41
1
41
1
41
1
41
1
10
-2.259573999707718
20
2.983539495984834
30
0
10
-2.287453585597361
20
2.9757332119360069
30
0
10
-2.3432127573761652
20
2.9601206438384073
30
0
10
-2.4268515150428405
20
2.9367017916921903
30
0
10
-2.5383698585956949
20
2.9054766554975546
30
0
10
-2.6777677880337758
20
2.8664452352546337
30
0
10
-2.7892861315829665
20
2.8352200990604661
30
0
10
-2.8729248892445081
20
2.8118012469148979
30
0
10
-2.928684061018747
20
2.796188678817868
30
0
10
-2.9565636469058387
20
2.7883823947693589
30
0
0
SPLINE
5
121
100
AcDbEntity
8
0
100
AcDbSpline
70
4
71
5
72
16
73
10
74
0
42
0.000000001
43
0.0000000001
44
0.0000000001
40
0
40
0
40
0
40
0
40
0
40
0
40
0.20000000000000001
40
0.40000000000000002
40
0.60000000000000009
40
0.80000000000000004
40
1
40
1
40
1
40
1
40
1
40
1
41
1
41
1
41
1
41
1
41
1
41
1
41
1
41
1
41
1
41
1
10
1.1026399936312048
20
-2.8055132762339499
30
0
10
0.94558539163372535
20
-2.8494885647921535
30
0
10
0.6314761876395325
20
-2.9374391419086292
30
0
10
0.16031238165064909
20
-3.0693650075835794
30
0
10
-0.46790602633026701
20
-3.2452661618172662
30
0
10
-1.2531790363013307
20
-3.4651426046098721
30
0
10
-1.8813974442754411
20
-3.6410437588442073
30
0
10
-2.3525612502547788
20
-3.7729696245200617
30
0
10
-2.6666704542404873
20
-3.8609202016373354
30
0
10
-2.8237250562332084
20
-3.9048954901959849
30
0
0
ENDSEC
0
SECTION
2
OBJECTS
0
DICTIONARY
5
C
100
AcDbDictionary
3
ACAD_GROUP
350
D
3
ACAD_MLINESTYLE
350
17
0
DICTIONARY
5
D
100
AcDbDictionary
0
DICTIONARY
5
1A
330
C
100
AcDbDictionary
0
DICTIONARY
5
17
100
AcDbDictionary
0
ENDSEC
0
EOF
