ISO-10303-21;
HEADER;
FILE_DESCRIPTION(('STEP AP214'),'1');
FILE_NAME('DIODE_CD1206-S01575_BRN','2023-02-07T10:29:13',(''),(''),'','','');
FILE_SCHEMA(('AUTOMOTIVE_DESIGN'));
ENDSEC;
DATA;
#1=SHAPE_DEFINITION_REPRESENTATION(#2,#3);
#2=PRODUCT_DEFINITION_SHAPE('',$,#4);
#3=SHAPE_REPRESENTATION('',(#71,#127,#423,#719,#19),#11);
#4=PRODUCT_DEFINITION('design','example product_definition',#6,#5);
#5=PRODUCT_DEFINITION_CONTEXT('3D Mechanical Parts',#10,'design');
#6=PRODUCT_DEFINITION_FORMATION('1.0','first version',#8);
#7=APPLICATION_PROTOCOL_DEFINITION('international standard','automotive_design',2003,#10);
#8=PRODUCT('product','part','',(#9));
#9=PRODUCT_CONTEXT('3D Mechanical Parts',#10,'mechanical');
#10=APPLICATION_CONTEXT('Core Data for Automotive Mechanical Design Process');
#11=(GEOMETRIC_REPRESENTATION_CONTEXT(3) GLOBAL_UNCERTAINTY_ASSIGNED_CONTEXT((#12)) GLOBAL_UNIT_ASSIGNED_CONTEXT((#13,#14,#18)) REPRESENTATION_CONTEXT('ID1','3D'));
#12=UNCERTAINTY_MEASURE_WITH_UNIT(LENGTH_MEASURE(1.E-005),#13,'DISTANCE_ACCURACY_VALUE','Maximum model space distance between geometric entities at asserted connectivities');
#13=(LENGTH_UNIT() NAMED_UNIT(*) SI_UNIT(.MILLI.,.METRE.));
#14=(CONVERSION_BASED_UNIT('degree',#16) NAMED_UNIT(#15) PLANE_ANGLE_UNIT());
#15=DIMENSIONAL_EXPONENTS(0.,0.,0.,0.,0.,0.,0.);
#16=MEASURE_WITH_UNIT(PLANE_ANGLE_MEASURE(0.01745329252),#17);
#17=(NAMED_UNIT(*) PLANE_ANGLE_UNIT() SI_UNIT($,.RADIAN.));
#18=(NAMED_UNIT(*) SI_UNIT($,.STERADIAN.) SOLID_ANGLE_UNIT());
#19=AXIS2_PLACEMENT_3D('',#20,#21,#22);
#20=CARTESIAN_POINT('',(0.0,0.0,0.0));
#21=DIRECTION('',(0.0,0.0,1.0));
#22=DIRECTION('',(1.0,0.0,0.0));
#25=MECHANICAL_DESIGN_GEOMETRIC_PRESENTATION_REPRESENTATION($,(#123,#124,#125,#129,#178,#227,#276,#325,#374,#425,#474,#523,#572,#621,#670,#721,#770,#819,#868,#917,#966),#11);
#26=PRODUCT_CATEGORY_RELATIONSHIP('','',#27,#28);
#27=PRODUCT_CATEGORY('part','');
#28=PRODUCT_RELATED_PRODUCT_CATEGORY('','',(#8));
#34=PRESENTATION_STYLE_ASSIGNMENT((#35,#40));
#35=SURFACE_STYLE_USAGE(.BOTH.,#36);
#36=SURFACE_SIDE_STYLE('',(#37));
#37=SURFACE_STYLE_FILL_AREA(#38);
#38=FILL_AREA_STYLE('',(#39));
#39=FILL_AREA_STYLE_COLOUR('',#41);
#40=CURVE_STYLE('',#42,POSITIVE_LENGTH_MEASURE(0.1),#41);
#41=COLOUR_RGB('Aluminum',0.725,0.725,0.725);
#42=DRAUGHTING_PRE_DEFINED_CURVE_FONT('continuous');
#43=PRESENTATION_STYLE_ASSIGNMENT((#44,#49));
#44=SURFACE_STYLE_USAGE(.BOTH.,#45);
#45=SURFACE_SIDE_STYLE('',(#46));
#46=SURFACE_STYLE_FILL_AREA(#47);
#47=FILL_AREA_STYLE('',(#48));
#48=FILL_AREA_STYLE_COLOUR('',#50);
#49=CURVE_STYLE('',#51,POSITIVE_LENGTH_MEASURE(0.1),#50);
#50=COLOUR_RGB('Black',0.196,0.196,0.196);
#51=DRAUGHTING_PRE_DEFINED_CURVE_FONT('continuous');
#52=PRESENTATION_STYLE_ASSIGNMENT((#53,#58));
#53=SURFACE_STYLE_USAGE(.BOTH.,#54);
#54=SURFACE_SIDE_STYLE('',(#55));
#55=SURFACE_STYLE_FILL_AREA(#56);
#56=FILL_AREA_STYLE('',(#57));
#57=FILL_AREA_STYLE_COLOUR('',#59);
#58=CURVE_STYLE('',#60,POSITIVE_LENGTH_MEASURE(0.1),#59);
#59=COLOUR_RGB('Pin1',0.588,0.588,0.588);
#60=DRAUGHTING_PRE_DEFINED_CURVE_FONT('continuous');
#61=PRESENTATION_STYLE_ASSIGNMENT((#62,#67));
#62=SURFACE_STYLE_USAGE(.BOTH.,#63);
#63=SURFACE_SIDE_STYLE('',(#64));
#64=SURFACE_STYLE_FILL_AREA(#65);
#65=FILL_AREA_STYLE('',(#66));
#66=FILL_AREA_STYLE_COLOUR('',#68);
#67=CURVE_STYLE('',#69,POSITIVE_LENGTH_MEASURE(0.1),#68);
#68=COLOUR_RGB('HeatTab',0.588,0.588,0.588);
#69=DRAUGHTING_PRE_DEFINED_CURVE_FONT('continuous');
#71=MANIFOLD_SOLID_BREP($,#72);
#72=CLOSED_SHELL('',(#73,#74,#75));
#73=ADVANCED_FACE($,(#79,#78),#96,.T.);
#74=ADVANCED_FACE($,(#80),#76,.F.);
#75=ADVANCED_FACE($,(#81),#77,.T.);
#76=PLANE($,#101);
#77=PLANE($,#102);
#78=FACE_BOUND($,#83,.T.);
#79=FACE_OUTER_BOUND($,#82,.T.);
#80=FACE_OUTER_BOUND($,#84,.T.);
#81=FACE_OUTER_BOUND($,#85,.T.);
#82=EDGE_LOOP($,(#92));
#83=EDGE_LOOP($,(#93));
#84=EDGE_LOOP($,(#94));
#85=EDGE_LOOP($,(#95));
#86=CIRCLE($,#99,0.08509);
#87=CIRCLE($,#100,0.08509);
#88=VERTEX_POINT('',#117);
#89=VERTEX_POINT('',#119);
#90=EDGE_CURVE($,#88,#88,#86,.T.);
#91=EDGE_CURVE($,#89,#89,#87,.T.);
#92=ORIENTED_EDGE($,*,*,#90,.F.);
#93=ORIENTED_EDGE($,*,*,#91,.F.);
#94=ORIENTED_EDGE($,*,*,#91,.T.);
#95=ORIENTED_EDGE($,*,*,#90,.T.);
#96=CYLINDRICAL_SURFACE($,#98,0.08509);
#97=AXIS2_PLACEMENT_3D('placement',#115,#103,#104);
#98=AXIS2_PLACEMENT_3D($,#116,#105,#106);
#99=AXIS2_PLACEMENT_3D($,#118,#107,#108);
#100=AXIS2_PLACEMENT_3D($,#120,#109,#110);
#101=AXIS2_PLACEMENT_3D($,#121,#111,#112);
#102=AXIS2_PLACEMENT_3D($,#122,#113,#114);
#103=DIRECTION('axis',(0.,1.,0.));
#104=DIRECTION('refdir',(1.,0.,0.));
#105=DIRECTION('',(0.,0.,1.));
#106=DIRECTION('',(1.,0.,0.));
#107=DIRECTION('',(0.,0.,1.));
#108=DIRECTION('',(1.,0.,0.));
#109=DIRECTION('',(0.,0.,-1.));
#110=DIRECTION('',(1.,0.,0.));
#111=DIRECTION('',(0.,0.,1.));
#112=DIRECTION('',(0.,1.,0.));
#113=DIRECTION('',(0.,0.,1.));
#114=DIRECTION('',(0.,1.,0.));
#115=CARTESIAN_POINT('',(0.,0.,0.));
#116=CARTESIAN_POINT('',(-1.361,0.0,0.94));
#117=CARTESIAN_POINT('',(-1.447,0.0,0.942));
#118=CARTESIAN_POINT('',(-1.361,0.0,0.942));
#119=CARTESIAN_POINT('',(-1.447,0.0,0.94));
#120=CARTESIAN_POINT('',(-1.361,0.0,0.94));
#121=CARTESIAN_POINT('',(-1.361,0.0,0.94));
#122=CARTESIAN_POINT('',(-1.361,0.0,0.942));
#123=STYLED_ITEM('color',(#52),#73);
#124=STYLED_ITEM('color',(#52),#74);
#125=STYLED_ITEM('color',(#52),#75);
#127=MANIFOLD_SOLID_BREP($,#128);
#128=CLOSED_SHELL('',(#130,#179,#228,#277,#326,#375));
#129=STYLED_ITEM('',(#43),#130);
#130=ADVANCED_FACE('',(#136),#131,.T.);
#131=PLANE('',#132);
#132=AXIS2_PLACEMENT_3D('',#133,#134,#135);
#133=CARTESIAN_POINT('',(-1.702,-0.851,0.006));
#134=DIRECTION('',(0.0,-1.0,0.0));
#135=DIRECTION('',(0.,0.,1.));
#136=FACE_OUTER_BOUND('',#137,.T.);
#137=EDGE_LOOP('',(#138,#148,#158,#168));
#141=CARTESIAN_POINT('',(1.702,-0.851,0.006));
#140=VERTEX_POINT('',#141);
#143=CARTESIAN_POINT('',(-1.702,-0.851,0.006));
#142=VERTEX_POINT('',#143);
#139=EDGE_CURVE('',#140,#142,#144,.T.);
#144=LINE('',#141,#146);
#146=VECTOR('',#147,3.4036);
#147=DIRECTION('',(-1.0,0.0,0.0));
#138=ORIENTED_EDGE('',*,*,#139,.F.);
#151=CARTESIAN_POINT('',(1.702,-0.851,0.94));
#150=VERTEX_POINT('',#151);
#149=EDGE_CURVE('',#150,#140,#154,.T.);
#154=LINE('',#151,#156);
#156=VECTOR('',#157,0.9334246);
#157=DIRECTION('',(0.0,0.0,-1.0));
#148=ORIENTED_EDGE('',*,*,#149,.F.);
#161=CARTESIAN_POINT('',(-1.702,-0.851,0.94));
#160=VERTEX_POINT('',#161);
#159=EDGE_CURVE('',#160,#150,#164,.T.);
#164=LINE('',#161,#166);
#166=VECTOR('',#167,3.4036);
#167=DIRECTION('',(1.0,0.0,0.0));
#158=ORIENTED_EDGE('',*,*,#159,.F.);
#169=EDGE_CURVE('',#142,#160,#174,.T.);
#174=LINE('',#143,#176);
#176=VECTOR('',#177,0.9334246);
#177=DIRECTION('',(0.0,0.0,1.0));
#168=ORIENTED_EDGE('',*,*,#169,.F.);
#178=STYLED_ITEM('',(#43),#179);
#179=ADVANCED_FACE('',(#185),#180,.T.);
#180=PLANE('',#181);
#181=AXIS2_PLACEMENT_3D('',#182,#183,#184);
#182=CARTESIAN_POINT('',(1.702,-0.851,0.006));
#183=DIRECTION('',(1.0,0.0,0.0));
#184=DIRECTION('',(0.,0.,1.));
#185=FACE_OUTER_BOUND('',#186,.T.);
#186=EDGE_LOOP('',(#187,#197,#207,#217));
#190=CARTESIAN_POINT('',(1.702,0.851,0.006));
#189=VERTEX_POINT('',#190);
#188=EDGE_CURVE('',#189,#140,#193,.T.);
#193=LINE('',#190,#195);
#195=VECTOR('',#196,1.7018);
#196=DIRECTION('',(0.0,-1.0,0.0));
#187=ORIENTED_EDGE('',*,*,#188,.F.);
#200=CARTESIAN_POINT('',(1.702,0.851,0.94));
#199=VERTEX_POINT('',#200);
#198=EDGE_CURVE('',#199,#189,#203,.T.);
#203=LINE('',#200,#205);
#205=VECTOR('',#206,0.9334246);
#206=DIRECTION('',(0.0,0.0,-1.0));
#197=ORIENTED_EDGE('',*,*,#198,.F.);
#208=EDGE_CURVE('',#150,#199,#213,.T.);
#213=LINE('',#151,#215);
#215=VECTOR('',#216,1.7018);
#216=DIRECTION('',(0.0,1.0,0.0));
#207=ORIENTED_EDGE('',*,*,#208,.F.);
#217=ORIENTED_EDGE('',*,*,#149,.T.);
#227=STYLED_ITEM('',(#43),#228);
#228=ADVANCED_FACE('',(#234),#229,.T.);
#229=PLANE('',#230);
#230=AXIS2_PLACEMENT_3D('',#231,#232,#233);
#231=CARTESIAN_POINT('',(1.702,0.851,0.006));
#232=DIRECTION('',(0.0,1.0,0.0));
#233=DIRECTION('',(0.,0.,1.));
#234=FACE_OUTER_BOUND('',#235,.T.);
#235=EDGE_LOOP('',(#236,#246,#256,#266));
#239=CARTESIAN_POINT('',(-1.702,0.851,0.006));
#238=VERTEX_POINT('',#239);
#237=EDGE_CURVE('',#238,#189,#242,.T.);
#242=LINE('',#239,#244);
#244=VECTOR('',#245,3.4036);
#245=DIRECTION('',(1.0,0.0,0.0));
#236=ORIENTED_EDGE('',*,*,#237,.F.);
#249=CARTESIAN_POINT('',(-1.702,0.851,0.94));
#248=VERTEX_POINT('',#249);
#247=EDGE_CURVE('',#248,#238,#252,.T.);
#252=LINE('',#249,#254);
#254=VECTOR('',#255,0.9334246);
#255=DIRECTION('',(0.0,0.0,-1.0));
#246=ORIENTED_EDGE('',*,*,#247,.F.);
#257=EDGE_CURVE('',#199,#248,#262,.T.);
#262=LINE('',#200,#264);
#264=VECTOR('',#265,3.4036);
#265=DIRECTION('',(-1.0,0.0,0.0));
#256=ORIENTED_EDGE('',*,*,#257,.F.);
#266=ORIENTED_EDGE('',*,*,#198,.T.);
#276=STYLED_ITEM('',(#43),#277);
#277=ADVANCED_FACE('',(#283),#278,.T.);
#278=PLANE('',#279);
#279=AXIS2_PLACEMENT_3D('',#280,#281,#282);
#280=CARTESIAN_POINT('',(-1.702,0.851,0.006));
#281=DIRECTION('',(-1.0,0.0,0.0));
#282=DIRECTION('',(0.,0.,1.));
#283=FACE_OUTER_BOUND('',#284,.T.);
#284=EDGE_LOOP('',(#285,#295,#305,#315));
#286=EDGE_CURVE('',#142,#238,#291,.T.);
#291=LINE('',#143,#293);
#293=VECTOR('',#294,1.7018);
#294=DIRECTION('',(0.0,1.0,0.0));
#285=ORIENTED_EDGE('',*,*,#286,.F.);
#295=ORIENTED_EDGE('',*,*,#169,.T.);
#306=EDGE_CURVE('',#248,#160,#311,.T.);
#311=LINE('',#249,#313);
#313=VECTOR('',#314,1.7018);
#314=DIRECTION('',(0.0,-1.0,0.0));
#305=ORIENTED_EDGE('',*,*,#306,.F.);
#315=ORIENTED_EDGE('',*,*,#247,.T.);
#325=STYLED_ITEM('',(#43),#326);
#326=ADVANCED_FACE('',(#332),#327,.T.);
#327=PLANE('',#328);
#328=AXIS2_PLACEMENT_3D('',#329,#330,#331);
#329=CARTESIAN_POINT('',(-1.702,0.851,0.006));
#330=DIRECTION('',(0.0,0.0,-1.0));
#331=DIRECTION('',(0.,1.,0.));
#332=FACE_OUTER_BOUND('',#333,.T.);
#333=EDGE_LOOP('',(#334,#344,#354,#364));
#334=ORIENTED_EDGE('',*,*,#237,.T.);
#344=ORIENTED_EDGE('',*,*,#188,.T.);
#354=ORIENTED_EDGE('',*,*,#139,.T.);
#364=ORIENTED_EDGE('',*,*,#286,.T.);
#374=STYLED_ITEM('',(#43),#375);
#375=ADVANCED_FACE('',(#381),#376,.T.);
#376=PLANE('',#377);
#377=AXIS2_PLACEMENT_3D('',#378,#379,#380);
#378=CARTESIAN_POINT('',(-1.702,-0.851,0.94));
#379=DIRECTION('',(0.0,0.0,1.0));
#380=DIRECTION('',(0.,1.,0.));
#381=FACE_OUTER_BOUND('',#382,.T.);
#382=EDGE_LOOP('',(#383,#393,#403,#413));
#383=ORIENTED_EDGE('',*,*,#159,.T.);
#393=ORIENTED_EDGE('',*,*,#208,.T.);
#403=ORIENTED_EDGE('',*,*,#257,.T.);
#413=ORIENTED_EDGE('',*,*,#306,.T.);
#423=MANIFOLD_SOLID_BREP($,#424);
#424=CLOSED_SHELL('',(#426,#475,#524,#573,#622,#671));
#425=STYLED_ITEM('',(#61),#426);
#426=ADVANCED_FACE('',(#432),#427,.T.);
#427=PLANE('',#428);
#428=AXIS2_PLACEMENT_3D('',#429,#430,#431);
#429=CARTESIAN_POINT('',(0.94,-0.851,0.0));
#430=DIRECTION('',(0.0,-1.0,0.0));
#431=DIRECTION('',(0.,0.,1.));
#432=FACE_OUTER_BOUND('',#433,.T.);
#433=EDGE_LOOP('',(#434,#444,#454,#464));
#437=CARTESIAN_POINT('',(1.702,-0.851,0.0));
#436=VERTEX_POINT('',#437);
#439=CARTESIAN_POINT('',(0.94,-0.851,0.0));
#438=VERTEX_POINT('',#439);
#435=EDGE_CURVE('',#436,#438,#440,.T.);
#440=LINE('',#437,#442);
#442=VECTOR('',#443,0.762);
#443=DIRECTION('',(-1.0,0.0,0.0));
#434=ORIENTED_EDGE('',*,*,#435,.F.);
#447=CARTESIAN_POINT('',(1.702,-0.851,0.006));
#446=VERTEX_POINT('',#447);
#445=EDGE_CURVE('',#446,#436,#450,.T.);
#450=LINE('',#447,#452);
#452=VECTOR('',#453,0.00635);
#453=DIRECTION('',(0.0,0.0,-1.0));
#444=ORIENTED_EDGE('',*,*,#445,.F.);
#457=CARTESIAN_POINT('',(0.94,-0.851,0.006));
#456=VERTEX_POINT('',#457);
#455=EDGE_CURVE('',#456,#446,#460,.T.);
#460=LINE('',#457,#462);
#462=VECTOR('',#463,0.762);
#463=DIRECTION('',(1.0,0.0,0.0));
#454=ORIENTED_EDGE('',*,*,#455,.F.);
#465=EDGE_CURVE('',#438,#456,#470,.T.);
#470=LINE('',#439,#472);
#472=VECTOR('',#473,0.00635);
#473=DIRECTION('',(0.0,0.0,1.0));
#464=ORIENTED_EDGE('',*,*,#465,.F.);
#474=STYLED_ITEM('',(#61),#475);
#475=ADVANCED_FACE('',(#481),#476,.T.);
#476=PLANE('',#477);
#477=AXIS2_PLACEMENT_3D('',#478,#479,#480);
#478=CARTESIAN_POINT('',(1.702,-0.851,0.0));
#479=DIRECTION('',(1.0,0.0,0.0));
#480=DIRECTION('',(0.,0.,1.));
#481=FACE_OUTER_BOUND('',#482,.T.);
#482=EDGE_LOOP('',(#483,#493,#503,#513));
#486=CARTESIAN_POINT('',(1.702,0.851,0.0));
#485=VERTEX_POINT('',#486);
#484=EDGE_CURVE('',#485,#436,#489,.T.);
#489=LINE('',#486,#491);
#491=VECTOR('',#492,1.7018);
#492=DIRECTION('',(0.0,-1.0,0.0));
#483=ORIENTED_EDGE('',*,*,#484,.F.);
#496=CARTESIAN_POINT('',(1.702,0.851,0.006));
#495=VERTEX_POINT('',#496);
#494=EDGE_CURVE('',#495,#485,#499,.T.);
#499=LINE('',#496,#501);
#501=VECTOR('',#502,0.00635);
#502=DIRECTION('',(0.0,0.0,-1.0));
#493=ORIENTED_EDGE('',*,*,#494,.F.);
#504=EDGE_CURVE('',#446,#495,#509,.T.);
#509=LINE('',#447,#511);
#511=VECTOR('',#512,1.7018);
#512=DIRECTION('',(0.0,1.0,0.0));
#503=ORIENTED_EDGE('',*,*,#504,.F.);
#513=ORIENTED_EDGE('',*,*,#445,.T.);
#523=STYLED_ITEM('',(#61),#524);
#524=ADVANCED_FACE('',(#530),#525,.T.);
#525=PLANE('',#526);
#526=AXIS2_PLACEMENT_3D('',#527,#528,#529);
#527=CARTESIAN_POINT('',(1.702,0.851,0.0));
#528=DIRECTION('',(0.0,1.0,0.0));
#529=DIRECTION('',(0.,0.,1.));
#530=FACE_OUTER_BOUND('',#531,.T.);
#531=EDGE_LOOP('',(#532,#542,#552,#562));
#535=CARTESIAN_POINT('',(0.94,0.851,0.0));
#534=VERTEX_POINT('',#535);
#533=EDGE_CURVE('',#534,#485,#538,.T.);
#538=LINE('',#535,#540);
#540=VECTOR('',#541,0.762);
#541=DIRECTION('',(1.0,0.0,0.0));
#532=ORIENTED_EDGE('',*,*,#533,.F.);
#545=CARTESIAN_POINT('',(0.94,0.851,0.006));
#544=VERTEX_POINT('',#545);
#543=EDGE_CURVE('',#544,#534,#548,.T.);
#548=LINE('',#545,#550);
#550=VECTOR('',#551,0.00635);
#551=DIRECTION('',(0.0,0.0,-1.0));
#542=ORIENTED_EDGE('',*,*,#543,.F.);
#553=EDGE_CURVE('',#495,#544,#558,.T.);
#558=LINE('',#496,#560);
#560=VECTOR('',#561,0.762);
#561=DIRECTION('',(-1.0,0.0,0.0));
#552=ORIENTED_EDGE('',*,*,#553,.F.);
#562=ORIENTED_EDGE('',*,*,#494,.T.);
#572=STYLED_ITEM('',(#61),#573);
#573=ADVANCED_FACE('',(#579),#574,.T.);
#574=PLANE('',#575);
#575=AXIS2_PLACEMENT_3D('',#576,#577,#578);
#576=CARTESIAN_POINT('',(0.94,0.851,0.0));
#577=DIRECTION('',(-1.0,0.0,0.0));
#578=DIRECTION('',(0.,0.,1.));
#579=FACE_OUTER_BOUND('',#580,.T.);
#580=EDGE_LOOP('',(#581,#591,#601,#611));
#582=EDGE_CURVE('',#438,#534,#587,.T.);
#587=LINE('',#439,#589);
#589=VECTOR('',#590,1.7018);
#590=DIRECTION('',(0.0,1.0,0.0));
#581=ORIENTED_EDGE('',*,*,#582,.F.);
#591=ORIENTED_EDGE('',*,*,#465,.T.);
#602=EDGE_CURVE('',#544,#456,#607,.T.);
#607=LINE('',#545,#609);
#609=VECTOR('',#610,1.7018);
#610=DIRECTION('',(0.0,-1.0,0.0));
#601=ORIENTED_EDGE('',*,*,#602,.F.);
#611=ORIENTED_EDGE('',*,*,#543,.T.);
#621=STYLED_ITEM('',(#61),#622);
#622=ADVANCED_FACE('',(#628),#623,.T.);
#623=PLANE('',#624);
#624=AXIS2_PLACEMENT_3D('',#625,#626,#627);
#625=CARTESIAN_POINT('',(0.94,0.851,0.0));
#626=DIRECTION('',(0.0,0.0,-1.0));
#627=DIRECTION('',(0.,1.,0.));
#628=FACE_OUTER_BOUND('',#629,.T.);
#629=EDGE_LOOP('',(#630,#640,#650,#660));
#630=ORIENTED_EDGE('',*,*,#533,.T.);
#640=ORIENTED_EDGE('',*,*,#484,.T.);
#650=ORIENTED_EDGE('',*,*,#435,.T.);
#660=ORIENTED_EDGE('',*,*,#582,.T.);
#670=STYLED_ITEM('',(#61),#671);
#671=ADVANCED_FACE('',(#677),#672,.T.);
#672=PLANE('',#673);
#673=AXIS2_PLACEMENT_3D('',#674,#675,#676);
#674=CARTESIAN_POINT('',(0.94,-0.851,0.006));
#675=DIRECTION('',(0.0,0.0,1.0));
#676=DIRECTION('',(0.,1.,0.));
#677=FACE_OUTER_BOUND('',#678,.T.);
#678=EDGE_LOOP('',(#679,#689,#699,#709));
#679=ORIENTED_EDGE('',*,*,#455,.T.);
#689=ORIENTED_EDGE('',*,*,#504,.T.);
#699=ORIENTED_EDGE('',*,*,#553,.T.);
#709=ORIENTED_EDGE('',*,*,#602,.T.);
#719=MANIFOLD_SOLID_BREP($,#720);
#720=CLOSED_SHELL('',(#722,#771,#820,#869,#918,#967));
#721=STYLED_ITEM('',(#61),#722);
#722=ADVANCED_FACE('',(#728),#723,.T.);
#723=PLANE('',#724);
#724=AXIS2_PLACEMENT_3D('',#725,#726,#727);
#725=CARTESIAN_POINT('',(-1.702,-0.851,0.0));
#726=DIRECTION('',(0.0,-1.0,0.0));
#727=DIRECTION('',(0.,0.,1.));
#728=FACE_OUTER_BOUND('',#729,.T.);
#729=EDGE_LOOP('',(#730,#740,#750,#760));
#733=CARTESIAN_POINT('',(-0.94,-0.851,0.0));
#732=VERTEX_POINT('',#733);
#735=CARTESIAN_POINT('',(-1.702,-0.851,0.0));
#734=VERTEX_POINT('',#735);
#731=EDGE_CURVE('',#732,#734,#736,.T.);
#736=LINE('',#733,#738);
#738=VECTOR('',#739,0.762);
#739=DIRECTION('',(-1.0,0.0,0.0));
#730=ORIENTED_EDGE('',*,*,#731,.F.);
#743=CARTESIAN_POINT('',(-0.94,-0.851,0.006));
#742=VERTEX_POINT('',#743);
#741=EDGE_CURVE('',#742,#732,#746,.T.);
#746=LINE('',#743,#748);
#748=VECTOR('',#749,0.00635);
#749=DIRECTION('',(0.0,0.0,-1.0));
#740=ORIENTED_EDGE('',*,*,#741,.F.);
#753=CARTESIAN_POINT('',(-1.702,-0.851,0.006));
#752=VERTEX_POINT('',#753);
#751=EDGE_CURVE('',#752,#742,#756,.T.);
#756=LINE('',#753,#758);
#758=VECTOR('',#759,0.762);
#759=DIRECTION('',(1.0,0.0,0.0));
#750=ORIENTED_EDGE('',*,*,#751,.F.);
#761=EDGE_CURVE('',#734,#752,#766,.T.);
#766=LINE('',#735,#768);
#768=VECTOR('',#769,0.00635);
#769=DIRECTION('',(0.0,0.0,1.0));
#760=ORIENTED_EDGE('',*,*,#761,.F.);
#770=STYLED_ITEM('',(#61),#771);
#771=ADVANCED_FACE('',(#777),#772,.T.);
#772=PLANE('',#773);
#773=AXIS2_PLACEMENT_3D('',#774,#775,#776);
#774=CARTESIAN_POINT('',(-0.94,-0.851,0.0));
#775=DIRECTION('',(1.0,0.0,0.0));
#776=DIRECTION('',(0.,0.,1.));
#777=FACE_OUTER_BOUND('',#778,.T.);
#778=EDGE_LOOP('',(#779,#789,#799,#809));
#782=CARTESIAN_POINT('',(-0.94,0.851,0.0));
#781=VERTEX_POINT('',#782);
#780=EDGE_CURVE('',#781,#732,#785,.T.);
#785=LINE('',#782,#787);
#787=VECTOR('',#788,1.7018);
#788=DIRECTION('',(0.0,-1.0,0.0));
#779=ORIENTED_EDGE('',*,*,#780,.F.);
#792=CARTESIAN_POINT('',(-0.94,0.851,0.006));
#791=VERTEX_POINT('',#792);
#790=EDGE_CURVE('',#791,#781,#795,.T.);
#795=LINE('',#792,#797);
#797=VECTOR('',#798,0.00635);
#798=DIRECTION('',(0.0,0.0,-1.0));
#789=ORIENTED_EDGE('',*,*,#790,.F.);
#800=EDGE_CURVE('',#742,#791,#805,.T.);
#805=LINE('',#743,#807);
#807=VECTOR('',#808,1.7018);
#808=DIRECTION('',(0.0,1.0,0.0));
#799=ORIENTED_EDGE('',*,*,#800,.F.);
#809=ORIENTED_EDGE('',*,*,#741,.T.);
#819=STYLED_ITEM('',(#61),#820);
#820=ADVANCED_FACE('',(#826),#821,.T.);
#821=PLANE('',#822);
#822=AXIS2_PLACEMENT_3D('',#823,#824,#825);
#823=CARTESIAN_POINT('',(-0.94,0.851,0.0));
#824=DIRECTION('',(0.0,1.0,0.0));
#825=DIRECTION('',(0.,0.,1.));
#826=FACE_OUTER_BOUND('',#827,.T.);
#827=EDGE_LOOP('',(#828,#838,#848,#858));
#831=CARTESIAN_POINT('',(-1.702,0.851,0.0));
#830=VERTEX_POINT('',#831);
#829=EDGE_CURVE('',#830,#781,#834,.T.);
#834=LINE('',#831,#836);
#836=VECTOR('',#837,0.762);
#837=DIRECTION('',(1.0,0.0,0.0));
#828=ORIENTED_EDGE('',*,*,#829,.F.);
#841=CARTESIAN_POINT('',(-1.702,0.851,0.006));
#840=VERTEX_POINT('',#841);
#839=EDGE_CURVE('',#840,#830,#844,.T.);
#844=LINE('',#841,#846);
#846=VECTOR('',#847,0.00635);
#847=DIRECTION('',(0.0,0.0,-1.0));
#838=ORIENTED_EDGE('',*,*,#839,.F.);
#849=EDGE_CURVE('',#791,#840,#854,.T.);
#854=LINE('',#792,#856);
#856=VECTOR('',#857,0.762);
#857=DIRECTION('',(-1.0,0.0,0.0));
#848=ORIENTED_EDGE('',*,*,#849,.F.);
#858=ORIENTED_EDGE('',*,*,#790,.T.);
#868=STYLED_ITEM('',(#61),#869);
#869=ADVANCED_FACE('',(#875),#870,.T.);
#870=PLANE('',#871);
#871=AXIS2_PLACEMENT_3D('',#872,#873,#874);
#872=CARTESIAN_POINT('',(-1.702,0.851,0.0));
#873=DIRECTION('',(-1.0,0.0,0.0));
#874=DIRECTION('',(0.,0.,1.));
#875=FACE_OUTER_BOUND('',#876,.T.);
#876=EDGE_LOOP('',(#877,#887,#897,#907));
#878=EDGE_CURVE('',#734,#830,#883,.T.);
#883=LINE('',#735,#885);
#885=VECTOR('',#886,1.7018);
#886=DIRECTION('',(0.0,1.0,0.0));
#877=ORIENTED_EDGE('',*,*,#878,.F.);
#887=ORIENTED_EDGE('',*,*,#761,.T.);
#898=EDGE_CURVE('',#840,#752,#903,.T.);
#903=LINE('',#841,#905);
#905=VECTOR('',#906,1.7018);
#906=DIRECTION('',(0.0,-1.0,0.0));
#897=ORIENTED_EDGE('',*,*,#898,.F.);
#907=ORIENTED_EDGE('',*,*,#839,.T.);
#917=STYLED_ITEM('',(#61),#918);
#918=ADVANCED_FACE('',(#924),#919,.T.);
#919=PLANE('',#920);
#920=AXIS2_PLACEMENT_3D('',#921,#922,#923);
#921=CARTESIAN_POINT('',(-1.702,0.851,0.0));
#922=DIRECTION('',(0.0,0.0,-1.0));
#923=DIRECTION('',(0.,1.,0.));
#924=FACE_OUTER_BOUND('',#925,.T.);
#925=EDGE_LOOP('',(#926,#936,#946,#956));
#926=ORIENTED_EDGE('',*,*,#829,.T.);
#936=ORIENTED_EDGE('',*,*,#780,.T.);
#946=ORIENTED_EDGE('',*,*,#731,.T.);
#956=ORIENTED_EDGE('',*,*,#878,.T.);
#966=STYLED_ITEM('',(#61),#967);
#967=ADVANCED_FACE('',(#973),#968,.T.);
#968=PLANE('',#969);
#969=AXIS2_PLACEMENT_3D('',#970,#971,#972);
#970=CARTESIAN_POINT('',(-1.702,-0.851,0.006));
#971=DIRECTION('',(0.0,0.0,1.0));
#972=DIRECTION('',(0.,1.,0.));
#973=FACE_OUTER_BOUND('',#974,.T.);
#974=EDGE_LOOP('',(#975,#985,#995,#1005));
#975=ORIENTED_EDGE('',*,*,#751,.T.);
#985=ORIENTED_EDGE('',*,*,#800,.T.);
#995=ORIENTED_EDGE('',*,*,#849,.T.);
#1005=ORIENTED_EDGE('',*,*,#898,.T.);
ENDSEC;
END-ISO-10303-21;
