ISO-10303-21;
HEADER;
/* Generated by software containing ST-Developer
 * from STEP Tools, Inc. (www.steptools.com) 
 */

FILE_DESCRIPTION(
/* description */ (''),
/* implementation_level */ '2;1');

FILE_NAME(
/* name */ 'Cree XP-G3 v1.step',
/* time_stamp */ '2023-05-05T21:33:39-06:00',
/* author */ (''),
/* organization */ (''),
/* preprocessor_version */ 'ST-DEVELOPER v19.2',
/* originating_system */ 'Autodesk Translation Framework v12.4.0.73',
/* authorisation */ '');

FILE_SCHEMA (('AUTOMOTIVE_DESIGN { 1 0 10303 214 3 1 1 }'));
ENDSEC;

DATA;
#10=MECHANICAL_DESIGN_GEOMETRIC_PRESENTATION_REPRESENTATION('',(#13),#249);
#11=SHAPE_REPRESENTATION_RELATIONSHIP('SRR','None',#256,#12);
#12=ADVANCED_BREP_SHAPE_REPRESENTATION('',(#14),#248);
#13=STYLED_ITEM('',(#265),#14);
#14=MANIFOLD_SOLID_BREP('Body1',#141);
#15=FACE_BOUND('',#58,.T.);
#16=LINE('',#223,#28);
#17=LINE('',#225,#29);
#18=LINE('',#227,#30);
#19=LINE('',#228,#31);
#20=LINE('',#232,#32);
#21=LINE('',#233,#33);
#22=LINE('',#234,#34);
#23=LINE('',#237,#35);
#24=LINE('',#238,#36);
#25=LINE('',#241,#37);
#26=LINE('',#242,#38);
#27=LINE('',#244,#39);
#28=VECTOR('',#186,10.);
#29=VECTOR('',#187,10.);
#30=VECTOR('',#188,10.);
#31=VECTOR('',#189,10.);
#32=VECTOR('',#192,10.);
#33=VECTOR('',#193,10.);
#34=VECTOR('',#194,10.);
#35=VECTOR('',#197,10.);
#36=VECTOR('',#198,10.);
#37=VECTOR('',#201,10.);
#38=VECTOR('',#202,10.);
#39=VECTOR('',#205,10.);
#40=PLANE('',#162);
#41=PLANE('',#163);
#42=PLANE('',#164);
#43=PLANE('',#165);
#44=PLANE('',#166);
#45=PLANE('',#167);
#46=SPHERICAL_SURFACE('',#160,1.53);
#47=FACE_OUTER_BOUND('',#55,.T.);
#48=FACE_OUTER_BOUND('',#56,.T.);
#49=FACE_OUTER_BOUND('',#57,.T.);
#50=FACE_OUTER_BOUND('',#59,.T.);
#51=FACE_OUTER_BOUND('',#60,.T.);
#52=FACE_OUTER_BOUND('',#61,.T.);
#53=FACE_OUTER_BOUND('',#62,.T.);
#54=FACE_OUTER_BOUND('',#63,.T.);
#55=EDGE_LOOP('',(#98,#99,#100,#101,#102));
#56=EDGE_LOOP('',(#103,#104,#105,#106));
#57=EDGE_LOOP('',(#107,#108,#109,#110));
#58=EDGE_LOOP('',(#111));
#59=EDGE_LOOP('',(#112,#113,#114,#115));
#60=EDGE_LOOP('',(#116,#117,#118,#119));
#61=EDGE_LOOP('',(#120,#121,#122,#123));
#62=EDGE_LOOP('',(#124,#125,#126,#127));
#63=EDGE_LOOP('',(#128,#129,#130,#131));
#64=CIRCLE('',#156,1.52711799020783);
#65=CIRCLE('',#157,0.1);
#66=CIRCLE('',#158,1.62692962355475);
#67=CIRCLE('',#159,1.52711799020783);
#68=CIRCLE('',#161,1.53);
#69=VERTEX_POINT('',#210);
#70=VERTEX_POINT('',#211);
#71=VERTEX_POINT('',#213);
#72=VERTEX_POINT('',#218);
#73=VERTEX_POINT('',#221);
#74=VERTEX_POINT('',#222);
#75=VERTEX_POINT('',#224);
#76=VERTEX_POINT('',#226);
#77=VERTEX_POINT('',#230);
#78=VERTEX_POINT('',#231);
#79=VERTEX_POINT('',#236);
#80=VERTEX_POINT('',#240);
#81=EDGE_CURVE('',#69,#70,#64,.T.);
#82=EDGE_CURVE('',#70,#71,#65,.T.);
#83=EDGE_CURVE('',#71,#71,#66,.T.);
#84=EDGE_CURVE('',#70,#69,#67,.T.);
#85=EDGE_CURVE('',#72,#69,#68,.T.);
#86=EDGE_CURVE('',#73,#74,#16,.T.);
#87=EDGE_CURVE('',#74,#75,#17,.T.);
#88=EDGE_CURVE('',#75,#76,#18,.T.);
#89=EDGE_CURVE('',#76,#73,#19,.T.);
#90=EDGE_CURVE('',#77,#78,#20,.T.);
#91=EDGE_CURVE('',#77,#73,#21,.T.);
#92=EDGE_CURVE('',#78,#76,#22,.T.);
#93=EDGE_CURVE('',#78,#79,#23,.T.);
#94=EDGE_CURVE('',#79,#75,#24,.T.);
#95=EDGE_CURVE('',#79,#80,#25,.T.);
#96=EDGE_CURVE('',#80,#74,#26,.T.);
#97=EDGE_CURVE('',#80,#77,#27,.T.);
#98=ORIENTED_EDGE('',*,*,#81,.T.);
#99=ORIENTED_EDGE('',*,*,#82,.T.);
#100=ORIENTED_EDGE('',*,*,#83,.T.);
#101=ORIENTED_EDGE('',*,*,#82,.F.);
#102=ORIENTED_EDGE('',*,*,#84,.T.);
#103=ORIENTED_EDGE('',*,*,#81,.F.);
#104=ORIENTED_EDGE('',*,*,#85,.F.);
#105=ORIENTED_EDGE('',*,*,#85,.T.);
#106=ORIENTED_EDGE('',*,*,#84,.F.);
#107=ORIENTED_EDGE('',*,*,#86,.T.);
#108=ORIENTED_EDGE('',*,*,#87,.T.);
#109=ORIENTED_EDGE('',*,*,#88,.T.);
#110=ORIENTED_EDGE('',*,*,#89,.T.);
#111=ORIENTED_EDGE('',*,*,#83,.F.);
#112=ORIENTED_EDGE('',*,*,#90,.F.);
#113=ORIENTED_EDGE('',*,*,#91,.T.);
#114=ORIENTED_EDGE('',*,*,#89,.F.);
#115=ORIENTED_EDGE('',*,*,#92,.F.);
#116=ORIENTED_EDGE('',*,*,#93,.F.);
#117=ORIENTED_EDGE('',*,*,#92,.T.);
#118=ORIENTED_EDGE('',*,*,#88,.F.);
#119=ORIENTED_EDGE('',*,*,#94,.F.);
#120=ORIENTED_EDGE('',*,*,#95,.F.);
#121=ORIENTED_EDGE('',*,*,#94,.T.);
#122=ORIENTED_EDGE('',*,*,#87,.F.);
#123=ORIENTED_EDGE('',*,*,#96,.F.);
#124=ORIENTED_EDGE('',*,*,#97,.F.);
#125=ORIENTED_EDGE('',*,*,#96,.T.);
#126=ORIENTED_EDGE('',*,*,#86,.F.);
#127=ORIENTED_EDGE('',*,*,#91,.F.);
#128=ORIENTED_EDGE('',*,*,#97,.T.);
#129=ORIENTED_EDGE('',*,*,#90,.T.);
#130=ORIENTED_EDGE('',*,*,#93,.T.);
#131=ORIENTED_EDGE('',*,*,#95,.T.);
#132=TOROIDAL_SURFACE('',#155,1.62692962355475,0.1);
#133=ADVANCED_FACE('',(#47),#132,.F.);
#134=ADVANCED_FACE('',(#48),#46,.T.);
#135=ADVANCED_FACE('',(#49,#15),#40,.T.);
#136=ADVANCED_FACE('',(#50),#41,.T.);
#137=ADVANCED_FACE('',(#51),#42,.T.);
#138=ADVANCED_FACE('',(#52),#43,.T.);
#139=ADVANCED_FACE('',(#53),#44,.T.);
#140=ADVANCED_FACE('',(#54),#45,.F.);
#141=CLOSED_SHELL('',(#133,#134,#135,#136,#137,#138,#139,#140));
#142=DERIVED_UNIT_ELEMENT(#144,1.);
#143=DERIVED_UNIT_ELEMENT(#251,-3.);
#144=(
MASS_UNIT()
NAMED_UNIT(*)
SI_UNIT(.KILO.,.GRAM.)
);
#145=DERIVED_UNIT((#142,#143));
#146=MEASURE_REPRESENTATION_ITEM('density measure',
POSITIVE_RATIO_MEASURE(7850.),#145);
#147=PROPERTY_DEFINITION_REPRESENTATION(#152,#149);
#148=PROPERTY_DEFINITION_REPRESENTATION(#153,#150);
#149=REPRESENTATION('material name',(#151),#248);
#150=REPRESENTATION('density',(#146),#248);
#151=DESCRIPTIVE_REPRESENTATION_ITEM('Steel','Steel');
#152=PROPERTY_DEFINITION('material property','material name',#258);
#153=PROPERTY_DEFINITION('material property','density of part',#258);
#154=AXIS2_PLACEMENT_3D('',#208,#168,#169);
#155=AXIS2_PLACEMENT_3D('',#209,#170,#171);
#156=AXIS2_PLACEMENT_3D('',#212,#172,#173);
#157=AXIS2_PLACEMENT_3D('',#214,#174,#175);
#158=AXIS2_PLACEMENT_3D('',#215,#176,#177);
#159=AXIS2_PLACEMENT_3D('',#216,#178,#179);
#160=AXIS2_PLACEMENT_3D('',#217,#180,#181);
#161=AXIS2_PLACEMENT_3D('',#219,#182,#183);
#162=AXIS2_PLACEMENT_3D('',#220,#184,#185);
#163=AXIS2_PLACEMENT_3D('',#229,#190,#191);
#164=AXIS2_PLACEMENT_3D('',#235,#195,#196);
#165=AXIS2_PLACEMENT_3D('',#239,#199,#200);
#166=AXIS2_PLACEMENT_3D('',#243,#203,#204);
#167=AXIS2_PLACEMENT_3D('',#245,#206,#207);
#168=DIRECTION('axis',(0.,0.,1.));
#169=DIRECTION('refdir',(1.,0.,0.));
#170=DIRECTION('center_axis',(0.,0.,-1.));
#171=DIRECTION('ref_axis',(-1.,0.,0.));
#172=DIRECTION('center_axis',(0.,0.,-1.));
#173=DIRECTION('ref_axis',(1.22464679914735E-16,-1.,0.));
#174=DIRECTION('center_axis',(-1.22464679914735E-16,-1.,0.));
#175=DIRECTION('ref_axis',(1.,-1.22464679914735E-16,0.));
#176=DIRECTION('center_axis',(0.,0.,1.));
#177=DIRECTION('ref_axis',(1.22464679914735E-16,-1.,0.));
#178=DIRECTION('center_axis',(0.,0.,-1.));
#179=DIRECTION('ref_axis',(1.22464679914735E-16,-1.,0.));
#180=DIRECTION('center_axis',(6.12323399573677E-17,0.,1.));
#181=DIRECTION('ref_axis',(1.,0.,0.));
#182=DIRECTION('center_axis',(1.22464679914735E-16,-1.,0.));
#183=DIRECTION('ref_axis',(-1.,-1.22464679914735E-16,0.));
#184=DIRECTION('center_axis',(0.,0.,1.));
#185=DIRECTION('ref_axis',(1.,0.,0.));
#186=DIRECTION('',(1.,0.,0.));
#187=DIRECTION('',(0.,1.,0.));
#188=DIRECTION('',(-1.,0.,0.));
#189=DIRECTION('',(0.,-1.,0.));
#190=DIRECTION('center_axis',(-1.,0.,0.));
#191=DIRECTION('ref_axis',(0.,-1.,0.));
#192=DIRECTION('',(0.,1.,0.));
#193=DIRECTION('',(0.,0.,1.));
#194=DIRECTION('',(0.,0.,1.));
#195=DIRECTION('center_axis',(0.,1.,0.));
#196=DIRECTION('ref_axis',(-1.,0.,0.));
#197=DIRECTION('',(1.,0.,0.));
#198=DIRECTION('',(0.,0.,1.));
#199=DIRECTION('center_axis',(1.,0.,0.));
#200=DIRECTION('ref_axis',(0.,1.,0.));
#201=DIRECTION('',(0.,-1.,0.));
#202=DIRECTION('',(0.,0.,1.));
#203=DIRECTION('center_axis',(0.,-1.,0.));
#204=DIRECTION('ref_axis',(1.,0.,0.));
#205=DIRECTION('',(-1.,0.,0.));
#206=DIRECTION('center_axis',(0.,0.,1.));
#207=DIRECTION('ref_axis',(1.,0.,0.));
#208=CARTESIAN_POINT('',(0.,0.,0.));
#209=CARTESIAN_POINT('Origin',(0.,0.,0.83));
#210=CARTESIAN_POINT('',(-1.52711799020783,-1.87018015862836E-16,0.823865030674847));
#211=CARTESIAN_POINT('',(1.52711799020783,-1.87018015862836E-16,0.823865030674847));
#212=CARTESIAN_POINT('Origin',(0.,0.,0.823865030674847));
#213=CARTESIAN_POINT('',(1.62692962355475,-1.99241415592433E-16,0.73));
#214=CARTESIAN_POINT('Origin',(1.62692962355475,-1.99241415592433E-16,0.83));
#215=CARTESIAN_POINT('Origin',(0.,0.,0.73));
#216=CARTESIAN_POINT('Origin',(0.,0.,0.823865030674847));
#217=CARTESIAN_POINT('Origin',(0.,0.,0.73));
#218=CARTESIAN_POINT('',(-9.36854801347725E-17,-1.14731623373632E-32,2.26));
#219=CARTESIAN_POINT('Origin',(0.,0.,0.73));
#220=CARTESIAN_POINT('Origin',(0.,0.,0.73));
#221=CARTESIAN_POINT('',(-1.725,-1.725,0.73));
#222=CARTESIAN_POINT('',(1.725,-1.725,0.73));
#223=CARTESIAN_POINT('',(1.725,-1.725,0.73));
#224=CARTESIAN_POINT('',(1.725,1.725,0.73));
#225=CARTESIAN_POINT('',(1.725,1.725,0.73));
#226=CARTESIAN_POINT('',(-1.725,1.725,0.73));
#227=CARTESIAN_POINT('',(-1.725,1.725,0.73));
#228=CARTESIAN_POINT('',(-1.725,-1.725,0.73));
#229=CARTESIAN_POINT('Origin',(-1.725,1.725,0.));
#230=CARTESIAN_POINT('',(-1.725,-1.725,0.));
#231=CARTESIAN_POINT('',(-1.725,1.725,0.));
#232=CARTESIAN_POINT('',(-1.725,-1.725,0.));
#233=CARTESIAN_POINT('',(-1.725,-1.725,0.));
#234=CARTESIAN_POINT('',(-1.725,1.725,0.));
#235=CARTESIAN_POINT('Origin',(1.725,1.725,0.));
#236=CARTESIAN_POINT('',(1.725,1.725,0.));
#237=CARTESIAN_POINT('',(-1.725,1.725,0.));
#238=CARTESIAN_POINT('',(1.725,1.725,0.));
#239=CARTESIAN_POINT('Origin',(1.725,-1.725,0.));
#240=CARTESIAN_POINT('',(1.725,-1.725,0.));
#241=CARTESIAN_POINT('',(1.725,1.725,0.));
#242=CARTESIAN_POINT('',(1.725,-1.725,0.));
#243=CARTESIAN_POINT('Origin',(-1.725,-1.725,0.));
#244=CARTESIAN_POINT('',(1.725,-1.725,0.));
#245=CARTESIAN_POINT('Origin',(0.,0.,0.));
#246=UNCERTAINTY_MEASURE_WITH_UNIT(LENGTH_MEASURE(0.01),#250,
'DISTANCE_ACCURACY_VALUE',
'Maximum model space distance between geometric entities at asserted c
onnectivities');
#247=UNCERTAINTY_MEASURE_WITH_UNIT(LENGTH_MEASURE(0.01),#250,
'DISTANCE_ACCURACY_VALUE',
'Maximum model space distance between geometric entities at asserted c
onnectivities');
#248=(
GEOMETRIC_REPRESENTATION_CONTEXT(3)
GLOBAL_UNCERTAINTY_ASSIGNED_CONTEXT((#246))
GLOBAL_UNIT_ASSIGNED_CONTEXT((#250,#252,#253))
REPRESENTATION_CONTEXT('','3D')
);
#249=(
GEOMETRIC_REPRESENTATION_CONTEXT(3)
GLOBAL_UNCERTAINTY_ASSIGNED_CONTEXT((#247))
GLOBAL_UNIT_ASSIGNED_CONTEXT((#250,#252,#253))
REPRESENTATION_CONTEXT('','3D')
);
#250=(
LENGTH_UNIT()
NAMED_UNIT(*)
SI_UNIT(.MILLI.,.METRE.)
);
#251=(
LENGTH_UNIT()
NAMED_UNIT(*)
SI_UNIT($,.METRE.)
);
#252=(
NAMED_UNIT(*)
PLANE_ANGLE_UNIT()
SI_UNIT($,.RADIAN.)
);
#253=(
NAMED_UNIT(*)
SI_UNIT($,.STERADIAN.)
SOLID_ANGLE_UNIT()
);
#254=SHAPE_DEFINITION_REPRESENTATION(#255,#256);
#255=PRODUCT_DEFINITION_SHAPE('',$,#258);
#256=SHAPE_REPRESENTATION('',(#154),#248);
#257=PRODUCT_DEFINITION_CONTEXT('part definition',#262,'design');
#258=PRODUCT_DEFINITION('Cree XP-G3','Cree XP-G3 v1',#259,#257);
#259=PRODUCT_DEFINITION_FORMATION('',$,#264);
#260=PRODUCT_RELATED_PRODUCT_CATEGORY('Cree XP-G3 v1','Cree XP-G3 v1',(#264));
#261=APPLICATION_PROTOCOL_DEFINITION('international standard',
'automotive_design',2009,#262);
#262=APPLICATION_CONTEXT(
'Core Data for Automotive Mechanical Design Process');
#263=PRODUCT_CONTEXT('part definition',#262,'mechanical');
#264=PRODUCT('Cree XP-G3','Cree XP-G3 v1',$,(#263));
#265=PRESENTATION_STYLE_ASSIGNMENT((#266));
#266=SURFACE_STYLE_USAGE(.BOTH.,#267);
#267=SURFACE_SIDE_STYLE('',(#268));
#268=SURFACE_STYLE_FILL_AREA(#269);
#269=FILL_AREA_STYLE('Steel - Satin',(#270));
#270=FILL_AREA_STYLE_COLOUR('Steel - Satin',#271);
#271=COLOUR_RGB('Steel - Satin',0.627450980392157,0.627450980392157,0.627450980392157);
ENDSEC;
END-ISO-10303-21;
