ISO-10303-21;
HEADER;
FILE_DESCRIPTION(('STEP AP214'),'1');
FILE_NAME('CAP_YX_12P5X20_RUB','2025-09-26T11:19:44',(''),(''),'','','');
FILE_SCHEMA(('AUTOMOTIVE_DESIGN'));
ENDSEC;
DATA;
#1=SHAPE_DEFINITION_REPRESENTATION(#2,#3);
#2=PRODUCT_DEFINITION_SHAPE('',$,#4);
#3=SHAPE_REPRESENTATION('',(#188,#243,#298,#354,#19),#11);
#4=PRODUCT_DEFINITION('design','example product_definition',#6,#5);
#5=PRODUCT_DEFINITION_CONTEXT('3D Mechanical Parts',#10,'design');
#6=PRODUCT_DEFINITION_FORMATION('1.0','first version',#8);
#7=APPLICATION_PROTOCOL_DEFINITION('international standard','automotive_design',2003,#10);
#8=PRODUCT('product','part','',(#9));
#9=PRODUCT_CONTEXT('3D Mechanical Parts',#10,'mechanical');
#10=APPLICATION_CONTEXT('Core Data for Automotive Mechanical Design Process');
#11=(GEOMETRIC_REPRESENTATION_CONTEXT(3) GLOBAL_UNCERTAINTY_ASSIGNED_CONTEXT((#12)) GLOBAL_UNIT_ASSIGNED_CONTEXT((#13,#14,#18)) REPRESENTATION_CONTEXT('ID1','3D'));
#12=UNCERTAINTY_MEASURE_WITH_UNIT(LENGTH_MEASURE(1.E-005),#13,'DISTANCE_ACCURACY_VALUE','Maximum model space distance between geometric entities at asserted connectivities');
#13=(LENGTH_UNIT() NAMED_UNIT(*) SI_UNIT(.MILLI.,.METRE.));
#14=(CONVERSION_BASED_UNIT('degree',#16) NAMED_UNIT(#15) PLANE_ANGLE_UNIT());
#15=DIMENSIONAL_EXPONENTS(0.,0.,0.,0.,0.,0.,0.);
#16=MEASURE_WITH_UNIT(PLANE_ANGLE_MEASURE(0.01745329252),#17);
#17=(NAMED_UNIT(*) PLANE_ANGLE_UNIT() SI_UNIT($,.RADIAN.));
#18=(NAMED_UNIT(*) SI_UNIT($,.STERADIAN.) SOLID_ANGLE_UNIT());
#19=AXIS2_PLACEMENT_3D('',#20,#21,#22);
#20=CARTESIAN_POINT('',(0.0,0.0,0.0));
#21=DIRECTION('',(0.0,0.0,1.0));
#22=DIRECTION('',(1.0,0.0,0.0));
#25=MECHANICAL_DESIGN_GEOMETRIC_PRESENTATION_REPRESENTATION($,(#240,#241,#242,#295,#296,#297,#350,#351,#352,#356,#425,#494,#543,#596,#649,#702,#754),#11);
#26=PRODUCT_CATEGORY_RELATIONSHIP('','',#27,#28);
#27=PRODUCT_CATEGORY('part','');
#28=PRODUCT_RELATED_PRODUCT_CATEGORY('','',(#8));
#34=PRESENTATION_STYLE_ASSIGNMENT((#35,#40));
#35=SURFACE_STYLE_USAGE(.BOTH.,#36);
#36=SURFACE_SIDE_STYLE('',(#37));
#37=SURFACE_STYLE_FILL_AREA(#38);
#38=FILL_AREA_STYLE('',(#39));
#39=FILL_AREA_STYLE_COLOUR('',#41);
#40=CURVE_STYLE('',#42,POSITIVE_LENGTH_MEASURE(0.1),#41);
#41=COLOUR_RGB('Aluminum',0.725,0.725,0.725);
#42=DRAUGHTING_PRE_DEFINED_CURVE_FONT('continuous');
#43=PRESENTATION_STYLE_ASSIGNMENT((#44,#49));
#44=SURFACE_STYLE_USAGE(.BOTH.,#45);
#45=SURFACE_SIDE_STYLE('',(#46));
#46=SURFACE_STYLE_FILL_AREA(#47);
#47=FILL_AREA_STYLE('',(#48));
#48=FILL_AREA_STYLE_COLOUR('',#50);
#49=CURVE_STYLE('',#51,POSITIVE_LENGTH_MEASURE(0.1),#50);
#50=COLOUR_RGB('Maroon',0.294,0.0,0.0);
#51=DRAUGHTING_PRE_DEFINED_CURVE_FONT('continuous');
#52=PRESENTATION_STYLE_ASSIGNMENT((#53,#58));
#53=SURFACE_STYLE_USAGE(.BOTH.,#54);
#54=SURFACE_SIDE_STYLE('',(#55));
#55=SURFACE_STYLE_FILL_AREA(#56);
#56=FILL_AREA_STYLE('',(#57));
#57=FILL_AREA_STYLE_COLOUR('',#59);
#58=CURVE_STYLE('',#60,POSITIVE_LENGTH_MEASURE(0.1),#59);
#59=COLOUR_RGB('Pin1Rad',0.588,0.588,0.588);
#60=DRAUGHTING_PRE_DEFINED_CURVE_FONT('continuous');
#61=PRESENTATION_STYLE_ASSIGNMENT((#62,#67));
#62=SURFACE_STYLE_USAGE(.BOTH.,#63);
#63=SURFACE_SIDE_STYLE('',(#64));
#64=SURFACE_STYLE_FILL_AREA(#65);
#65=FILL_AREA_STYLE('',(#66));
#66=FILL_AREA_STYLE_COLOUR('',#68);
#67=CURVE_STYLE('',#69,POSITIVE_LENGTH_MEASURE(0.1),#68);
#68=COLOUR_RGB('HeatTab',0.588,0.588,0.588);
#69=DRAUGHTING_PRE_DEFINED_CURVE_FONT('continuous');
#70=PRESENTATION_STYLE_ASSIGNMENT((#71,#76));
#71=SURFACE_STYLE_USAGE(.BOTH.,#72);
#72=SURFACE_SIDE_STYLE('',(#73));
#73=SURFACE_STYLE_FILL_AREA(#74);
#74=FILL_AREA_STYLE('',(#75));
#75=FILL_AREA_STYLE_COLOUR('',#77);
#76=CURVE_STYLE('',#78,POSITIVE_LENGTH_MEASURE(0.1),#77);
#77=COLOUR_RGB('Black',0.196,0.196,0.196);
#78=DRAUGHTING_PRE_DEFINED_CURVE_FONT('continuous');
#79=PRESENTATION_STYLE_ASSIGNMENT((#80,#85));
#80=SURFACE_STYLE_USAGE(.BOTH.,#81);
#81=SURFACE_SIDE_STYLE('',(#82));
#82=SURFACE_STYLE_FILL_AREA(#83);
#83=FILL_AREA_STYLE('',(#84));
#84=FILL_AREA_STYLE_COLOUR('',#86);
#85=CURVE_STYLE('',#87,POSITIVE_LENGTH_MEASURE(0.1),#86);
#86=COLOUR_RGB('Gold',0.843,0.686,0.0);
#87=DRAUGHTING_PRE_DEFINED_CURVE_FONT('continuous');
#88=PRESENTATION_STYLE_ASSIGNMENT((#89,#94));
#89=SURFACE_STYLE_USAGE(.BOTH.,#90);
#90=SURFACE_SIDE_STYLE('',(#91));
#91=SURFACE_STYLE_FILL_AREA(#92);
#92=FILL_AREA_STYLE('',(#93));
#93=FILL_AREA_STYLE_COLOUR('',#95);
#94=CURVE_STYLE('',#96,POSITIVE_LENGTH_MEASURE(0.1),#95);
#95=COLOUR_RGB('Brown',0.459,0.345,0.176);
#96=DRAUGHTING_PRE_DEFINED_CURVE_FONT('continuous');
#97=PRESENTATION_STYLE_ASSIGNMENT((#98,#103));
#98=SURFACE_STYLE_USAGE(.BOTH.,#99);
#99=SURFACE_SIDE_STYLE('',(#100));
#100=SURFACE_STYLE_FILL_AREA(#101);
#101=FILL_AREA_STYLE('',(#102));
#102=FILL_AREA_STYLE_COLOUR('',#104);
#103=CURVE_STYLE('',#105,POSITIVE_LENGTH_MEASURE(0.1),#104);
#104=COLOUR_RGB('Tan',0.784,0.686,0.51);
#105=DRAUGHTING_PRE_DEFINED_CURVE_FONT('continuous');
#106=PRESENTATION_STYLE_ASSIGNMENT((#107,#112));
#107=SURFACE_STYLE_USAGE(.BOTH.,#108);
#108=SURFACE_SIDE_STYLE('',(#109));
#109=SURFACE_STYLE_FILL_AREA(#110);
#110=FILL_AREA_STYLE('',(#111));
#111=FILL_AREA_STYLE_COLOUR('',#113);
#112=CURVE_STYLE('',#114,POSITIVE_LENGTH_MEASURE(0.1),#113);
#113=COLOUR_RGB('Gray',0.431,0.431,0.431);
#114=DRAUGHTING_PRE_DEFINED_CURVE_FONT('continuous');
#115=PRESENTATION_STYLE_ASSIGNMENT((#116,#121));
#116=SURFACE_STYLE_USAGE(.BOTH.,#117);
#117=SURFACE_SIDE_STYLE('',(#118));
#118=SURFACE_STYLE_FILL_AREA(#119);
#119=FILL_AREA_STYLE('',(#120));
#120=FILL_AREA_STYLE_COLOUR('',#122);
#121=CURVE_STYLE('',#123,POSITIVE_LENGTH_MEASURE(0.1),#122);
#122=COLOUR_RGB('Red',0.6,0.0,0.0);
#123=DRAUGHTING_PRE_DEFINED_CURVE_FONT('continuous');
#124=PRESENTATION_STYLE_ASSIGNMENT((#125,#130));
#125=SURFACE_STYLE_USAGE(.BOTH.,#126);
#126=SURFACE_SIDE_STYLE('',(#127));
#127=SURFACE_STYLE_FILL_AREA(#128);
#128=FILL_AREA_STYLE('',(#129));
#129=FILL_AREA_STYLE_COLOUR('',#131);
#130=CURVE_STYLE('',#132,POSITIVE_LENGTH_MEASURE(0.1),#131);
#131=COLOUR_RGB('Blue',0.157,0.157,0.588);
#132=DRAUGHTING_PRE_DEFINED_CURVE_FONT('continuous');
#133=PRESENTATION_STYLE_ASSIGNMENT((#134,#139));
#134=SURFACE_STYLE_USAGE(.BOTH.,#135);
#135=SURFACE_SIDE_STYLE('',(#136));
#136=SURFACE_STYLE_FILL_AREA(#137);
#137=FILL_AREA_STYLE('',(#138));
#138=FILL_AREA_STYLE_COLOUR('',#140);
#139=CURVE_STYLE('',#141,POSITIVE_LENGTH_MEASURE(0.1),#140);
#140=COLOUR_RGB('Green',0.0,0.294,0.0);
#141=DRAUGHTING_PRE_DEFINED_CURVE_FONT('continuous');
#142=PRESENTATION_STYLE_ASSIGNMENT((#143,#148));
#143=SURFACE_STYLE_USAGE(.BOTH.,#144);
#144=SURFACE_SIDE_STYLE('',(#145));
#145=SURFACE_STYLE_FILL_AREA(#146);
#146=FILL_AREA_STYLE('',(#147));
#147=FILL_AREA_STYLE_COLOUR('',#149);
#148=CURVE_STYLE('',#150,POSITIVE_LENGTH_MEASURE(0.1),#149);
#149=COLOUR_RGB('Pin1',0.588,0.588,0.059);
#150=DRAUGHTING_PRE_DEFINED_CURVE_FONT('continuous');
#151=PRESENTATION_STYLE_ASSIGNMENT((#152,#157));
#152=SURFACE_STYLE_USAGE(.BOTH.,#153);
#153=SURFACE_SIDE_STYLE('',(#154));
#154=SURFACE_STYLE_FILL_AREA(#155);
#155=FILL_AREA_STYLE('',(#156));
#156=FILL_AREA_STYLE_COLOUR('',#158);
#157=CURVE_STYLE('',#159,POSITIVE_LENGTH_MEASURE(0.1),#158);
#158=COLOUR_RGB('Pin1Wrap',0.98,0.706,0.176);
#159=DRAUGHTING_PRE_DEFINED_CURVE_FONT('continuous');
#160=PRESENTATION_STYLE_ASSIGNMENT((#161,#166));
#161=SURFACE_STYLE_USAGE(.BOTH.,#162);
#162=SURFACE_SIDE_STYLE('',(#163));
#163=SURFACE_STYLE_FILL_AREA(#164);
#164=FILL_AREA_STYLE('',(#165));
#165=FILL_AREA_STYLE_COLOUR('',#167);
#166=CURVE_STYLE('',#168,POSITIVE_LENGTH_MEASURE(0.1),#167);
#167=COLOUR_RGB('Pin1Axial',0.98,0.706,0.176);
#168=DRAUGHTING_PRE_DEFINED_CURVE_FONT('continuous');
#169=PRESENTATION_STYLE_ASSIGNMENT((#170,#175));
#170=SURFACE_STYLE_USAGE(.BOTH.,#171);
#171=SURFACE_SIDE_STYLE('',(#172));
#172=SURFACE_STYLE_FILL_AREA(#173);
#173=FILL_AREA_STYLE('',(#174));
#174=FILL_AREA_STYLE_COLOUR('',#176);
#175=CURVE_STYLE('',#177,POSITIVE_LENGTH_MEASURE(0.1),#176);
#176=COLOUR_RGB('Pin1Tant',0.459,0.345,0.176);
#177=DRAUGHTING_PRE_DEFINED_CURVE_FONT('continuous');
#178=PRESENTATION_STYLE_ASSIGNMENT((#179,#184));
#179=SURFACE_STYLE_USAGE(.BOTH.,#180);
#180=SURFACE_SIDE_STYLE('',(#181));
#181=SURFACE_STYLE_FILL_AREA(#182);
#182=FILL_AREA_STYLE('',(#183));
#183=FILL_AREA_STYLE_COLOUR('',#185);
#184=CURVE_STYLE('',#186,POSITIVE_LENGTH_MEASURE(0.1),#185);
#185=COLOUR_RGB('Shroud',0.235,0.235,0.235);
#186=DRAUGHTING_PRE_DEFINED_CURVE_FONT('continuous');
#188=MANIFOLD_SOLID_BREP($,#189);
#189=CLOSED_SHELL('',(#190,#191,#192));
#190=ADVANCED_FACE($,(#196,#195),#213,.T.);
#191=ADVANCED_FACE($,(#197),#193,.F.);
#192=ADVANCED_FACE($,(#198),#194,.T.);
#193=PLANE($,#218);
#194=PLANE($,#219);
#195=FACE_BOUND($,#200,.T.);
#196=FACE_OUTER_BOUND($,#199,.T.);
#197=FACE_OUTER_BOUND($,#201,.T.);
#198=FACE_OUTER_BOUND($,#202,.T.);
#199=EDGE_LOOP($,(#209));
#200=EDGE_LOOP($,(#210));
#201=EDGE_LOOP($,(#211));
#202=EDGE_LOOP($,(#212));
#203=CIRCLE($,#216,0.3048);
#204=CIRCLE($,#217,0.3048);
#205=VERTEX_POINT('',#234);
#206=VERTEX_POINT('',#236);
#207=EDGE_CURVE($,#205,#205,#203,.T.);
#208=EDGE_CURVE($,#206,#206,#204,.T.);
#209=ORIENTED_EDGE($,*,*,#207,.F.);
#210=ORIENTED_EDGE($,*,*,#208,.F.);
#211=ORIENTED_EDGE($,*,*,#208,.T.);
#212=ORIENTED_EDGE($,*,*,#207,.T.);
#213=CYLINDRICAL_SURFACE($,#215,0.3048);
#214=AXIS2_PLACEMENT_3D('placement',#232,#220,#221);
#215=AXIS2_PLACEMENT_3D($,#233,#222,#223);
#216=AXIS2_PLACEMENT_3D($,#235,#224,#225);
#217=AXIS2_PLACEMENT_3D($,#237,#226,#227);
#218=AXIS2_PLACEMENT_3D($,#238,#228,#229);
#219=AXIS2_PLACEMENT_3D($,#239,#230,#231);
#220=DIRECTION('axis',(0.,1.,0.));
#221=DIRECTION('refdir',(1.,0.,0.));
#222=DIRECTION('',(0.,0.,1.));
#223=DIRECTION('',(1.,0.,0.));
#224=DIRECTION('',(0.,0.,1.));
#225=DIRECTION('',(1.,0.,0.));
#226=DIRECTION('',(0.,0.,-1.));
#227=DIRECTION('',(1.,0.,0.));
#228=DIRECTION('',(0.,0.,1.));
#229=DIRECTION('',(0.,1.,0.));
#230=DIRECTION('',(0.,0.,1.));
#231=DIRECTION('',(0.,1.,0.));
#232=CARTESIAN_POINT('',(0.,0.,0.));
#233=CARTESIAN_POINT('',(5.0,0.0,-4.369));
#234=CARTESIAN_POINT('',(4.695,0.0,0.0));
#235=CARTESIAN_POINT('',(5.0,0.0,0.0));
#236=CARTESIAN_POINT('',(4.695,0.0,-4.369));
#237=CARTESIAN_POINT('',(5.0,0.0,-4.369));
#238=CARTESIAN_POINT('',(5.0,0.0,-4.369));
#239=CARTESIAN_POINT('',(5.0,0.0,0.0));
#240=STYLED_ITEM('color',(#34),#190);
#241=STYLED_ITEM('color',(#34),#191);
#242=STYLED_ITEM('color',(#34),#192);
#243=MANIFOLD_SOLID_BREP($,#244);
#244=CLOSED_SHELL('',(#245,#246,#247));
#245=ADVANCED_FACE($,(#251,#250),#268,.T.);
#246=ADVANCED_FACE($,(#252),#248,.F.);
#247=ADVANCED_FACE($,(#253),#249,.T.);
#248=PLANE($,#273);
#249=PLANE($,#274);
#250=FACE_BOUND($,#255,.T.);
#251=FACE_OUTER_BOUND($,#254,.T.);
#252=FACE_OUTER_BOUND($,#256,.T.);
#253=FACE_OUTER_BOUND($,#257,.T.);
#254=EDGE_LOOP($,(#264));
#255=EDGE_LOOP($,(#265));
#256=EDGE_LOOP($,(#266));
#257=EDGE_LOOP($,(#267));
#258=CIRCLE($,#271,0.3048);
#259=CIRCLE($,#272,0.3048);
#260=VERTEX_POINT('',#289);
#261=VERTEX_POINT('',#291);
#262=EDGE_CURVE($,#260,#260,#258,.T.);
#263=EDGE_CURVE($,#261,#261,#259,.T.);
#264=ORIENTED_EDGE($,*,*,#262,.F.);
#265=ORIENTED_EDGE($,*,*,#263,.F.);
#266=ORIENTED_EDGE($,*,*,#263,.T.);
#267=ORIENTED_EDGE($,*,*,#262,.T.);
#268=CYLINDRICAL_SURFACE($,#270,0.3048);
#269=AXIS2_PLACEMENT_3D('placement',#287,#275,#276);
#270=AXIS2_PLACEMENT_3D($,#288,#277,#278);
#271=AXIS2_PLACEMENT_3D($,#290,#279,#280);
#272=AXIS2_PLACEMENT_3D($,#292,#281,#282);
#273=AXIS2_PLACEMENT_3D($,#293,#283,#284);
#274=AXIS2_PLACEMENT_3D($,#294,#285,#286);
#275=DIRECTION('axis',(0.,1.,0.));
#276=DIRECTION('refdir',(1.,0.,0.));
#277=DIRECTION('',(0.,0.,1.));
#278=DIRECTION('',(1.,0.,0.));
#279=DIRECTION('',(0.,0.,1.));
#280=DIRECTION('',(1.,0.,0.));
#281=DIRECTION('',(0.,0.,-1.));
#282=DIRECTION('',(1.,0.,0.));
#283=DIRECTION('',(0.,0.,1.));
#284=DIRECTION('',(0.,1.,0.));
#285=DIRECTION('',(0.,0.,1.));
#286=DIRECTION('',(0.,1.,0.));
#287=CARTESIAN_POINT('',(0.,0.,0.));
#288=CARTESIAN_POINT('',(0.0,0.0,-4.369));
#289=CARTESIAN_POINT('',(-0.305,0.0,0.0));
#290=CARTESIAN_POINT('',(0.0,0.0,0.0));
#291=CARTESIAN_POINT('',(-0.305,0.0,-4.369));
#292=CARTESIAN_POINT('',(0.0,0.0,-4.369));
#293=CARTESIAN_POINT('',(0.0,0.0,-4.369));
#294=CARTESIAN_POINT('',(0.0,0.0,0.0));
#295=STYLED_ITEM('color',(#34),#245);
#296=STYLED_ITEM('color',(#34),#246);
#297=STYLED_ITEM('color',(#34),#247);
#298=MANIFOLD_SOLID_BREP($,#299);
#299=CLOSED_SHELL('',(#300,#301,#302));
#300=ADVANCED_FACE($,(#306,#305),#323,.T.);
#301=ADVANCED_FACE($,(#307),#303,.F.);
#302=ADVANCED_FACE($,(#308),#304,.T.);
#303=PLANE($,#328);
#304=PLANE($,#329);
#305=FACE_BOUND($,#310,.T.);
#306=FACE_OUTER_BOUND($,#309,.T.);
#307=FACE_OUTER_BOUND($,#311,.T.);
#308=FACE_OUTER_BOUND($,#312,.T.);
#309=EDGE_LOOP($,(#319));
#310=EDGE_LOOP($,(#320));
#311=EDGE_LOOP($,(#321));
#312=EDGE_LOOP($,(#322));
#313=CIRCLE($,#326,6.5024);
#314=CIRCLE($,#327,6.5024);
#315=VERTEX_POINT('',#344);
#316=VERTEX_POINT('',#346);
#317=EDGE_CURVE($,#315,#315,#313,.T.);
#318=EDGE_CURVE($,#316,#316,#314,.T.);
#319=ORIENTED_EDGE($,*,*,#317,.F.);
#320=ORIENTED_EDGE($,*,*,#318,.F.);
#321=ORIENTED_EDGE($,*,*,#318,.T.);
#322=ORIENTED_EDGE($,*,*,#317,.T.);
#323=CYLINDRICAL_SURFACE($,#325,6.5024);
#324=AXIS2_PLACEMENT_3D('placement',#342,#330,#331);
#325=AXIS2_PLACEMENT_3D($,#343,#332,#333);
#326=AXIS2_PLACEMENT_3D($,#345,#334,#335);
#327=AXIS2_PLACEMENT_3D($,#347,#336,#337);
#328=AXIS2_PLACEMENT_3D($,#348,#338,#339);
#329=AXIS2_PLACEMENT_3D($,#349,#340,#341);
#330=DIRECTION('axis',(0.,1.,0.));
#331=DIRECTION('refdir',(1.,0.,0.));
#332=DIRECTION('',(0.,0.,1.));
#333=DIRECTION('',(1.,0.,0.));
#334=DIRECTION('',(0.,0.,1.));
#335=DIRECTION('',(1.,0.,0.));
#336=DIRECTION('',(0.,0.,-1.));
#337=DIRECTION('',(1.,0.,0.));
#338=DIRECTION('',(0.,0.,1.));
#339=DIRECTION('',(0.,1.,0.));
#340=DIRECTION('',(0.,0.,1.));
#341=DIRECTION('',(0.,1.,0.));
#342=CARTESIAN_POINT('',(0.,0.,0.));
#343=CARTESIAN_POINT('',(2.5,0.0,0.0));
#344=CARTESIAN_POINT('',(-4.002,0.0,21.996));
#345=CARTESIAN_POINT('',(2.5,0.0,21.996));
#346=CARTESIAN_POINT('',(-4.002,0.0,0.0));
#347=CARTESIAN_POINT('',(2.5,0.0,0.0));
#348=CARTESIAN_POINT('',(2.5,0.0,0.0));
#349=CARTESIAN_POINT('',(2.5,0.0,21.996));
#350=STYLED_ITEM('color',(#43),#300);
#351=STYLED_ITEM('color',(#43),#301);
#352=STYLED_ITEM('color',(#43),#302);
#354=MANIFOLD_SOLID_BREP($,#355);
#355=CLOSED_SHELL('',(#357,#426,#495,#544,#597,#650,#703,#755));
#356=STYLED_ITEM('',(#52),#357);
#357=ADVANCED_FACE('',(#363),#358,.T.);
#358=PLANE('',#359);
#359=AXIS2_PLACEMENT_3D('',#360,#361,#362);
#360=CARTESIAN_POINT('',(8.913,1.269,4.39));
#361=DIRECTION('',(0.0,1.0,0.0));
#362=DIRECTION('',(0.,0.,1.));
#363=FACE_OUTER_BOUND('',#364,.T.);
#364=EDGE_LOOP('',(#365,#375,#385,#395,#405,#415));
#368=CARTESIAN_POINT('',(8.888,1.269,4.39));
#367=VERTEX_POINT('',#368);
#370=CARTESIAN_POINT('',(8.913,1.269,4.39));
#369=VERTEX_POINT('',#370);
#366=EDGE_CURVE('',#367,#369,#371,.T.);
#371=LINE('',#368,#373);
#373=VECTOR('',#374,0.0253999995705005);
#374=DIRECTION('',(1.0,0.0,0.0));
#365=ORIENTED_EDGE('',*,*,#366,.F.);
#378=CARTESIAN_POINT('',(8.888,1.269,21.987));
#377=VERTEX_POINT('',#378);
#376=EDGE_CURVE('',#377,#367,#381,.T.);
#381=LINE('',#378,#383);
#383=VECTOR('',#384,17.59712);
#384=DIRECTION('',(0.0,0.0,-1.0));
#375=ORIENTED_EDGE('',*,*,#376,.F.);
#388=CARTESIAN_POINT('',(3.811,1.269,21.987));
#387=VERTEX_POINT('',#388);
#386=EDGE_CURVE('',#387,#377,#391,.T.);
#391=LINE('',#388,#393);
#393=VECTOR('',#394,5.07697818062836);
#394=DIRECTION('',(1.0,0.0,0.0));
#385=ORIENTED_EDGE('',*,*,#386,.F.);
#398=CARTESIAN_POINT('',(3.811,1.269,22.012));
#397=VERTEX_POINT('',#398);
#396=EDGE_CURVE('',#397,#387,#401,.T.);
#401=LINE('',#398,#403);
#403=VECTOR('',#404,0.0254);
#404=DIRECTION('',(0.0,0.0,-1.0));
#395=ORIENTED_EDGE('',*,*,#396,.F.);
#408=CARTESIAN_POINT('',(8.913,1.269,22.012));
#407=VERTEX_POINT('',#408);
#406=EDGE_CURVE('',#407,#397,#411,.T.);
#411=LINE('',#408,#413);
#413=VECTOR('',#414,5.10237818019886);
#414=DIRECTION('',(-1.0,0.0,0.0));
#405=ORIENTED_EDGE('',*,*,#406,.F.);
#416=EDGE_CURVE('',#369,#407,#421,.T.);
#421=LINE('',#370,#423);
#423=VECTOR('',#424,17.62252);
#424=DIRECTION('',(0.0,0.0,1.0));
#415=ORIENTED_EDGE('',*,*,#416,.F.);
#425=STYLED_ITEM('',(#52),#426);
#426=ADVANCED_FACE('',(#432),#427,.T.);
#427=PLANE('',#428);
#428=AXIS2_PLACEMENT_3D('',#429,#430,#431);
#429=CARTESIAN_POINT('',(8.888,-1.269,4.39));
#430=DIRECTION('',(0.0,-1.0,0.0));
#431=DIRECTION('',(0.,0.,1.));
#432=FACE_OUTER_BOUND('',#433,.T.);
#433=EDGE_LOOP('',(#434,#444,#454,#464,#474,#484));
#437=CARTESIAN_POINT('',(8.913,-1.269,4.39));
#436=VERTEX_POINT('',#437);
#439=CARTESIAN_POINT('',(8.888,-1.269,4.39));
#438=VERTEX_POINT('',#439);
#435=EDGE_CURVE('',#436,#438,#440,.T.);
#440=LINE('',#437,#442);
#442=VECTOR('',#443,0.0253999995705003);
#443=DIRECTION('',(-1.0,0.0,0.0));
#434=ORIENTED_EDGE('',*,*,#435,.F.);
#447=CARTESIAN_POINT('',(8.913,-1.269,22.012));
#446=VERTEX_POINT('',#447);
#445=EDGE_CURVE('',#446,#436,#450,.T.);
#450=LINE('',#447,#452);
#452=VECTOR('',#453,17.62252);
#453=DIRECTION('',(0.0,0.0,-1.0));
#444=ORIENTED_EDGE('',*,*,#445,.F.);
#457=CARTESIAN_POINT('',(3.811,-1.269,22.012));
#456=VERTEX_POINT('',#457);
#455=EDGE_CURVE('',#456,#446,#460,.T.);
#460=LINE('',#457,#462);
#462=VECTOR('',#463,5.10237818019886);
#463=DIRECTION('',(1.0,0.0,0.0));
#454=ORIENTED_EDGE('',*,*,#455,.F.);
#467=CARTESIAN_POINT('',(3.811,-1.269,21.987));
#466=VERTEX_POINT('',#467);
#465=EDGE_CURVE('',#466,#456,#470,.T.);
#470=LINE('',#467,#472);
#472=VECTOR('',#473,0.0254);
#473=DIRECTION('',(0.0,0.0,1.0));
#464=ORIENTED_EDGE('',*,*,#465,.F.);
#477=CARTESIAN_POINT('',(8.888,-1.269,21.987));
#476=VERTEX_POINT('',#477);
#475=EDGE_CURVE('',#476,#466,#480,.T.);
#480=LINE('',#477,#482);
#482=VECTOR('',#483,5.07697818062836);
#483=DIRECTION('',(-1.0,0.0,0.0));
#474=ORIENTED_EDGE('',*,*,#475,.F.);
#485=EDGE_CURVE('',#438,#476,#490,.T.);
#490=LINE('',#439,#492);
#492=VECTOR('',#493,17.59712);
#493=DIRECTION('',(0.0,0.0,1.0));
#484=ORIENTED_EDGE('',*,*,#485,.F.);
#494=STYLED_ITEM('',(#52),#495);
#495=ADVANCED_FACE('',(#501),#496,.T.);
#496=PLANE('',#497);
#497=AXIS2_PLACEMENT_3D('',#498,#499,#500);
#498=CARTESIAN_POINT('',(3.811,1.269,21.987));
#499=DIRECTION('',(-1.0,0.0,0.0));
#500=DIRECTION('',(0.,0.,1.));
#501=FACE_OUTER_BOUND('',#502,.T.);
#502=EDGE_LOOP('',(#503,#513,#523,#533));
#504=EDGE_CURVE('',#466,#387,#509,.T.);
#509=LINE('',#467,#511);
#511=VECTOR('',#512,2.53711113488452);
#512=DIRECTION('',(0.0,1.0,0.0));
#503=ORIENTED_EDGE('',*,*,#504,.F.);
#513=ORIENTED_EDGE('',*,*,#465,.T.);
#524=EDGE_CURVE('',#397,#456,#529,.T.);
#529=LINE('',#398,#531);
#531=VECTOR('',#532,2.53711113488452);
#532=DIRECTION('',(0.0,-1.0,0.0));
#523=ORIENTED_EDGE('',*,*,#524,.F.);
#533=ORIENTED_EDGE('',*,*,#396,.T.);
#543=STYLED_ITEM('color',(#52),#544);
#544=ADVANCED_FACE($,(#550),#545,.T.);
#545=CYLINDRICAL_SURFACE($,#546,6.5278);
#546=AXIS2_PLACEMENT_3D($,#547,#548,#549);
#547=CARTESIAN_POINT('',(2.51,0.0,4.39));
#548=DIRECTION('',(0.,0.,1.));
#549=DIRECTION('',(-1.,0.,0.));
#550=FACE_OUTER_BOUND($,#551,.T.);
#551=EDGE_LOOP($,(#574, #552, #584, #563));
#574=ORIENTED_EDGE('',*,*,#445,.T.);
#553=EDGE_CURVE($,#369,#436,#558,.T.);
#558=CIRCLE($,#559,6.5278);
#560=CARTESIAN_POINT('',(2.51,0.0,4.39));
#559=AXIS2_PLACEMENT_3D($,#560,#561,#562);
#561=DIRECTION('',(0.0,0.0,-1.0));
#562=DIRECTION('',(1.0,0.0,0.0));
#552=ORIENTED_EDGE('',*,*,#553,.F.);
#584=ORIENTED_EDGE('',*,*,#416,.T.);
#564=EDGE_CURVE($,#446,#407,#569,.T.);
#569=CIRCLE($,#570,6.5278);
#571=CARTESIAN_POINT('',(2.51,0.0,22.012));
#570=AXIS2_PLACEMENT_3D($,#571,#572,#573);
#572=DIRECTION('',(0.0,0.0,1.0));
#573=DIRECTION('',(-1.0,0.0,0.0));
#563=ORIENTED_EDGE('',*,*,#564,.F.);
#596=STYLED_ITEM('color',(#52),#597);
#597=ADVANCED_FACE($,(#603),#598,.F.);
#598=CYLINDRICAL_SURFACE($,#599,6.5024);
#599=AXIS2_PLACEMENT_3D($,#600,#601,#602);
#600=CARTESIAN_POINT('',(2.51,0.0,4.39));
#601=DIRECTION('',(0.,0.,1.));
#602=DIRECTION('',(-1.,0.,0.));
#603=FACE_OUTER_BOUND($,#604,.T.);
#604=EDGE_LOOP($,(#627, #605, #637, #616));
#627=ORIENTED_EDGE('',*,*,#376,.T.);
#606=EDGE_CURVE($,#438,#367,#611,.T.);
#611=CIRCLE($,#612,6.5024);
#612=AXIS2_PLACEMENT_3D($,#560,#614,#615);
#614=DIRECTION('',(0.0,0.0,1.0));
#615=DIRECTION('',(-1.0,0.0,0.0));
#605=ORIENTED_EDGE('',*,*,#606,.F.);
#637=ORIENTED_EDGE('',*,*,#485,.T.);
#617=EDGE_CURVE($,#377,#476,#622,.T.);
#622=CIRCLE($,#623,6.5024);
#624=CARTESIAN_POINT('',(2.51,0.0,21.987));
#623=AXIS2_PLACEMENT_3D($,#624,#625,#626);
#625=DIRECTION('',(0.0,0.0,-1.0));
#626=DIRECTION('',(1.0,0.0,0.0));
#616=ORIENTED_EDGE('',*,*,#617,.F.);
#649=STYLED_ITEM('color',(#52),#650);
#650=ADVANCED_FACE($,(#656),#651,.T.);
#651=PLANE($,#652);
#652=AXIS2_PLACEMENT_3D($,#653,#654,#655);
#653=CARTESIAN_POINT('',(8.913,1.269,4.39));
#654=DIRECTION('',(0.0,0.0,-1.0));
#655=DIRECTION('',(1.,0.,0.));
#656=FACE_OUTER_BOUND($,#657,.T.);
#657=EDGE_LOOP($,(#660, #670, #681, #691));
#660=ORIENTED_EDGE('',*,*,#366,.T.);
#670=ORIENTED_EDGE('',*,*,#553,.T.);
#681=ORIENTED_EDGE('',*,*,#435,.T.);
#691=ORIENTED_EDGE('',*,*,#606,.T.);
#702=STYLED_ITEM('color',(#52),#703);
#703=ADVANCED_FACE($,(#709),#704,.T.);
#704=PLANE($,#705);
#705=AXIS2_PLACEMENT_3D($,#706,#707,#708);
#706=CARTESIAN_POINT('',(3.811,-1.269,21.987));
#707=DIRECTION('',(0.0,0.0,-1.0));
#708=DIRECTION('',(1.,0.,0.));
#709=FACE_OUTER_BOUND($,#710,.T.);
#710=EDGE_LOOP($,(#713, #723, #733, #743));
#713=ORIENTED_EDGE('',*,*,#475,.T.);
#723=ORIENTED_EDGE('',*,*,#504,.T.);
#733=ORIENTED_EDGE('',*,*,#386,.T.);
#743=ORIENTED_EDGE('',*,*,#617,.T.);
#754=STYLED_ITEM('color',(#52),#755);
#755=ADVANCED_FACE($,(#761),#756,.T.);
#756=PLANE($,#757);
#757=AXIS2_PLACEMENT_3D($,#758,#759,#760);
#758=CARTESIAN_POINT('',(3.811,1.269,22.012));
#759=DIRECTION('',(0.0,0.0,1.0));
#760=DIRECTION('',(1.,0.,0.));
#761=FACE_OUTER_BOUND($,#762,.T.);
#762=EDGE_LOOP($,(#765, #775, #785, #795));
#765=ORIENTED_EDGE('',*,*,#406,.T.);
#775=ORIENTED_EDGE('',*,*,#524,.T.);
#785=ORIENTED_EDGE('',*,*,#455,.T.);
#795=ORIENTED_EDGE('',*,*,#564,.T.);
ENDSEC;
END-ISO-10303-21;
