ISO-10303-21;
HEADER;
FILE_DESCRIPTION(('STEP AP214'),'1');
FILE_NAME('CAP_NTD_80_05_0T_NIP','2025-07-16T03:43:38',(''),(''),'','','');
FILE_SCHEMA(('AUTOMOTIVE_DESIGN'));
ENDSEC;
DATA;
#1=SHAPE_DEFINITION_REPRESENTATION(#2,#3);
#2=PRODUCT_DEFINITION_SHAPE('',$,#4);
#3=SHAPE_REPRESENTATION('',(#188,#243,#299,#19),#11);
#4=PRODUCT_DEFINITION('design','example product_definition',#6,#5);
#5=PRODUCT_DEFINITION_CONTEXT('3D Mechanical Parts',#10,'design');
#6=PRODUCT_DEFINITION_FORMATION('1.0','first version',#8);
#7=APPLICATION_PROTOCOL_DEFINITION('international standard','automotive_design',2003,#10);
#8=PRODUCT('product','part','',(#9));
#9=PRODUCT_CONTEXT('3D Mechanical Parts',#10,'mechanical');
#10=APPLICATION_CONTEXT('Core Data for Automotive Mechanical Design Process');
#11=(GEOMETRIC_REPRESENTATION_CONTEXT(3) GLOBAL_UNCERTAINTY_ASSIGNED_CONTEXT((#12)) GLOBAL_UNIT_ASSIGNED_CONTEXT((#13,#14,#18)) REPRESENTATION_CONTEXT('ID1','3D'));
#12=UNCERTAINTY_MEASURE_WITH_UNIT(LENGTH_MEASURE(1.E-005),#13,'DISTANCE_ACCURACY_VALUE','Maximum model space distance between geometric entities at asserted connectivities');
#13=(LENGTH_UNIT() NAMED_UNIT(*) SI_UNIT(.MILLI.,.METRE.));
#14=(CONVERSION_BASED_UNIT('degree',#16) NAMED_UNIT(#15) PLANE_ANGLE_UNIT());
#15=DIMENSIONAL_EXPONENTS(0.,0.,0.,0.,0.,0.,0.);
#16=MEASURE_WITH_UNIT(PLANE_ANGLE_MEASURE(0.01745329252),#17);
#17=(NAMED_UNIT(*) PLANE_ANGLE_UNIT() SI_UNIT($,.RADIAN.));
#18=(NAMED_UNIT(*) SI_UNIT($,.STERADIAN.) SOLID_ANGLE_UNIT());
#19=AXIS2_PLACEMENT_3D('',#20,#21,#22);
#20=CARTESIAN_POINT('',(0.0,0.0,0.0));
#21=DIRECTION('',(0.0,0.0,1.0));
#22=DIRECTION('',(1.0,0.0,0.0));
#25=MECHANICAL_DESIGN_GEOMETRIC_PRESENTATION_REPRESENTATION($,(#240,#241,#242,#295,#296,#297,#301,#350,#399,#448,#497,#546),#11);
#26=PRODUCT_CATEGORY_RELATIONSHIP('','',#27,#28);
#27=PRODUCT_CATEGORY('part','');
#28=PRODUCT_RELATED_PRODUCT_CATEGORY('','',(#8));
#34=PRESENTATION_STYLE_ASSIGNMENT((#35,#40));
#35=SURFACE_STYLE_USAGE(.BOTH.,#36);
#36=SURFACE_SIDE_STYLE('',(#37));
#37=SURFACE_STYLE_FILL_AREA(#38);
#38=FILL_AREA_STYLE('',(#39));
#39=FILL_AREA_STYLE_COLOUR('',#41);
#40=CURVE_STYLE('',#42,POSITIVE_LENGTH_MEASURE(0.1),#41);
#41=COLOUR_RGB('Aluminum',0.725,0.725,0.725);
#42=DRAUGHTING_PRE_DEFINED_CURVE_FONT('continuous');
#43=PRESENTATION_STYLE_ASSIGNMENT((#44,#49));
#44=SURFACE_STYLE_USAGE(.BOTH.,#45);
#45=SURFACE_SIDE_STYLE('',(#46));
#46=SURFACE_STYLE_FILL_AREA(#47);
#47=FILL_AREA_STYLE('',(#48));
#48=FILL_AREA_STYLE_COLOUR('',#50);
#49=CURVE_STYLE('',#51,POSITIVE_LENGTH_MEASURE(0.1),#50);
#50=COLOUR_RGB('Tan',0.784,0.686,0.51);
#51=DRAUGHTING_PRE_DEFINED_CURVE_FONT('continuous');
#52=PRESENTATION_STYLE_ASSIGNMENT((#53,#58));
#53=SURFACE_STYLE_USAGE(.BOTH.,#54);
#54=SURFACE_SIDE_STYLE('',(#55));
#55=SURFACE_STYLE_FILL_AREA(#56);
#56=FILL_AREA_STYLE('',(#57));
#57=FILL_AREA_STYLE_COLOUR('',#59);
#58=CURVE_STYLE('',#60,POSITIVE_LENGTH_MEASURE(0.1),#59);
#59=COLOUR_RGB('Pin1',0.588,0.588,0.588);
#60=DRAUGHTING_PRE_DEFINED_CURVE_FONT('continuous');
#61=PRESENTATION_STYLE_ASSIGNMENT((#62,#67));
#62=SURFACE_STYLE_USAGE(.BOTH.,#63);
#63=SURFACE_SIDE_STYLE('',(#64));
#64=SURFACE_STYLE_FILL_AREA(#65);
#65=FILL_AREA_STYLE('',(#66));
#66=FILL_AREA_STYLE_COLOUR('',#68);
#67=CURVE_STYLE('',#69,POSITIVE_LENGTH_MEASURE(0.1),#68);
#68=COLOUR_RGB('HeatTab',0.588,0.588,0.588);
#69=DRAUGHTING_PRE_DEFINED_CURVE_FONT('continuous');
#70=PRESENTATION_STYLE_ASSIGNMENT((#71,#76));
#71=SURFACE_STYLE_USAGE(.BOTH.,#72);
#72=SURFACE_SIDE_STYLE('',(#73));
#73=SURFACE_STYLE_FILL_AREA(#74);
#74=FILL_AREA_STYLE('',(#75));
#75=FILL_AREA_STYLE_COLOUR('',#77);
#76=CURVE_STYLE('',#78,POSITIVE_LENGTH_MEASURE(0.1),#77);
#77=COLOUR_RGB('Black',0.196,0.196,0.196);
#78=DRAUGHTING_PRE_DEFINED_CURVE_FONT('continuous');
#79=PRESENTATION_STYLE_ASSIGNMENT((#80,#85));
#80=SURFACE_STYLE_USAGE(.BOTH.,#81);
#81=SURFACE_SIDE_STYLE('',(#82));
#82=SURFACE_STYLE_FILL_AREA(#83);
#83=FILL_AREA_STYLE('',(#84));
#84=FILL_AREA_STYLE_COLOUR('',#86);
#85=CURVE_STYLE('',#87,POSITIVE_LENGTH_MEASURE(0.1),#86);
#86=COLOUR_RGB('Gold',0.843,0.686,0.0);
#87=DRAUGHTING_PRE_DEFINED_CURVE_FONT('continuous');
#88=PRESENTATION_STYLE_ASSIGNMENT((#89,#94));
#89=SURFACE_STYLE_USAGE(.BOTH.,#90);
#90=SURFACE_SIDE_STYLE('',(#91));
#91=SURFACE_STYLE_FILL_AREA(#92);
#92=FILL_AREA_STYLE('',(#93));
#93=FILL_AREA_STYLE_COLOUR('',#95);
#94=CURVE_STYLE('',#96,POSITIVE_LENGTH_MEASURE(0.1),#95);
#95=COLOUR_RGB('Brown',0.459,0.345,0.176);
#96=DRAUGHTING_PRE_DEFINED_CURVE_FONT('continuous');
#97=PRESENTATION_STYLE_ASSIGNMENT((#98,#103));
#98=SURFACE_STYLE_USAGE(.BOTH.,#99);
#99=SURFACE_SIDE_STYLE('',(#100));
#100=SURFACE_STYLE_FILL_AREA(#101);
#101=FILL_AREA_STYLE('',(#102));
#102=FILL_AREA_STYLE_COLOUR('',#104);
#103=CURVE_STYLE('',#105,POSITIVE_LENGTH_MEASURE(0.1),#104);
#104=COLOUR_RGB('Gray',0.431,0.431,0.431);
#105=DRAUGHTING_PRE_DEFINED_CURVE_FONT('continuous');
#106=PRESENTATION_STYLE_ASSIGNMENT((#107,#112));
#107=SURFACE_STYLE_USAGE(.BOTH.,#108);
#108=SURFACE_SIDE_STYLE('',(#109));
#109=SURFACE_STYLE_FILL_AREA(#110);
#110=FILL_AREA_STYLE('',(#111));
#111=FILL_AREA_STYLE_COLOUR('',#113);
#112=CURVE_STYLE('',#114,POSITIVE_LENGTH_MEASURE(0.1),#113);
#113=COLOUR_RGB('Red',0.6,0.0,0.0);
#114=DRAUGHTING_PRE_DEFINED_CURVE_FONT('continuous');
#115=PRESENTATION_STYLE_ASSIGNMENT((#116,#121));
#116=SURFACE_STYLE_USAGE(.BOTH.,#117);
#117=SURFACE_SIDE_STYLE('',(#118));
#118=SURFACE_STYLE_FILL_AREA(#119);
#119=FILL_AREA_STYLE('',(#120));
#120=FILL_AREA_STYLE_COLOUR('',#122);
#121=CURVE_STYLE('',#123,POSITIVE_LENGTH_MEASURE(0.1),#122);
#122=COLOUR_RGB('Blue',0.157,0.157,0.588);
#123=DRAUGHTING_PRE_DEFINED_CURVE_FONT('continuous');
#124=PRESENTATION_STYLE_ASSIGNMENT((#125,#130));
#125=SURFACE_STYLE_USAGE(.BOTH.,#126);
#126=SURFACE_SIDE_STYLE('',(#127));
#127=SURFACE_STYLE_FILL_AREA(#128);
#128=FILL_AREA_STYLE('',(#129));
#129=FILL_AREA_STYLE_COLOUR('',#131);
#130=CURVE_STYLE('',#132,POSITIVE_LENGTH_MEASURE(0.1),#131);
#131=COLOUR_RGB('Maroon',0.294,0.0,0.0);
#132=DRAUGHTING_PRE_DEFINED_CURVE_FONT('continuous');
#133=PRESENTATION_STYLE_ASSIGNMENT((#134,#139));
#134=SURFACE_STYLE_USAGE(.BOTH.,#135);
#135=SURFACE_SIDE_STYLE('',(#136));
#136=SURFACE_STYLE_FILL_AREA(#137);
#137=FILL_AREA_STYLE('',(#138));
#138=FILL_AREA_STYLE_COLOUR('',#140);
#139=CURVE_STYLE('',#141,POSITIVE_LENGTH_MEASURE(0.1),#140);
#140=COLOUR_RGB('Green',0.0,0.294,0.0);
#141=DRAUGHTING_PRE_DEFINED_CURVE_FONT('continuous');
#142=PRESENTATION_STYLE_ASSIGNMENT((#143,#148));
#143=SURFACE_STYLE_USAGE(.BOTH.,#144);
#144=SURFACE_SIDE_STYLE('',(#145));
#145=SURFACE_STYLE_FILL_AREA(#146);
#146=FILL_AREA_STYLE('',(#147));
#147=FILL_AREA_STYLE_COLOUR('',#149);
#148=CURVE_STYLE('',#150,POSITIVE_LENGTH_MEASURE(0.1),#149);
#149=COLOUR_RGB('Pin1Wrap',0.98,0.706,0.176);
#150=DRAUGHTING_PRE_DEFINED_CURVE_FONT('continuous');
#151=PRESENTATION_STYLE_ASSIGNMENT((#152,#157));
#152=SURFACE_STYLE_USAGE(.BOTH.,#153);
#153=SURFACE_SIDE_STYLE('',(#154));
#154=SURFACE_STYLE_FILL_AREA(#155);
#155=FILL_AREA_STYLE('',(#156));
#156=FILL_AREA_STYLE_COLOUR('',#158);
#157=CURVE_STYLE('',#159,POSITIVE_LENGTH_MEASURE(0.1),#158);
#158=COLOUR_RGB('Pin1Rad',0.588,0.588,0.588);
#159=DRAUGHTING_PRE_DEFINED_CURVE_FONT('continuous');
#160=PRESENTATION_STYLE_ASSIGNMENT((#161,#166));
#161=SURFACE_STYLE_USAGE(.BOTH.,#162);
#162=SURFACE_SIDE_STYLE('',(#163));
#163=SURFACE_STYLE_FILL_AREA(#164);
#164=FILL_AREA_STYLE('',(#165));
#165=FILL_AREA_STYLE_COLOUR('',#167);
#166=CURVE_STYLE('',#168,POSITIVE_LENGTH_MEASURE(0.1),#167);
#167=COLOUR_RGB('Pin1Axial',0.98,0.706,0.176);
#168=DRAUGHTING_PRE_DEFINED_CURVE_FONT('continuous');
#169=PRESENTATION_STYLE_ASSIGNMENT((#170,#175));
#170=SURFACE_STYLE_USAGE(.BOTH.,#171);
#171=SURFACE_SIDE_STYLE('',(#172));
#172=SURFACE_STYLE_FILL_AREA(#173);
#173=FILL_AREA_STYLE('',(#174));
#174=FILL_AREA_STYLE_COLOUR('',#176);
#175=CURVE_STYLE('',#177,POSITIVE_LENGTH_MEASURE(0.1),#176);
#176=COLOUR_RGB('Pin1Tant',0.459,0.345,0.176);
#177=DRAUGHTING_PRE_DEFINED_CURVE_FONT('continuous');
#178=PRESENTATION_STYLE_ASSIGNMENT((#179,#184));
#179=SURFACE_STYLE_USAGE(.BOTH.,#180);
#180=SURFACE_SIDE_STYLE('',(#181));
#181=SURFACE_STYLE_FILL_AREA(#182);
#182=FILL_AREA_STYLE('',(#183));
#183=FILL_AREA_STYLE_COLOUR('',#185);
#184=CURVE_STYLE('',#186,POSITIVE_LENGTH_MEASURE(0.1),#185);
#185=COLOUR_RGB('Shroud',0.235,0.235,0.235);
#186=DRAUGHTING_PRE_DEFINED_CURVE_FONT('continuous');
#188=MANIFOLD_SOLID_BREP($,#189);
#189=CLOSED_SHELL('',(#190,#191,#192));
#190=ADVANCED_FACE($,(#196,#195),#213,.T.);
#191=ADVANCED_FACE($,(#197),#193,.F.);
#192=ADVANCED_FACE($,(#198),#194,.T.);
#193=PLANE($,#218);
#194=PLANE($,#219);
#195=FACE_BOUND($,#200,.T.);
#196=FACE_OUTER_BOUND($,#199,.T.);
#197=FACE_OUTER_BOUND($,#201,.T.);
#198=FACE_OUTER_BOUND($,#202,.T.);
#199=EDGE_LOOP($,(#209));
#200=EDGE_LOOP($,(#210));
#201=EDGE_LOOP($,(#211));
#202=EDGE_LOOP($,(#212));
#203=CIRCLE($,#216,0.3302);
#204=CIRCLE($,#217,0.3302);
#205=VERTEX_POINT('',#234);
#206=VERTEX_POINT('',#236);
#207=EDGE_CURVE($,#205,#205,#203,.T.);
#208=EDGE_CURVE($,#206,#206,#204,.T.);
#209=ORIENTED_EDGE($,*,*,#207,.F.);
#210=ORIENTED_EDGE($,*,*,#208,.F.);
#211=ORIENTED_EDGE($,*,*,#208,.T.);
#212=ORIENTED_EDGE($,*,*,#207,.T.);
#213=CYLINDRICAL_SURFACE($,#215,0.3302);
#214=AXIS2_PLACEMENT_3D('placement',#232,#220,#221);
#215=AXIS2_PLACEMENT_3D($,#233,#222,#223);
#216=AXIS2_PLACEMENT_3D($,#235,#224,#225);
#217=AXIS2_PLACEMENT_3D($,#237,#226,#227);
#218=AXIS2_PLACEMENT_3D($,#238,#228,#229);
#219=AXIS2_PLACEMENT_3D($,#239,#230,#231);
#220=DIRECTION('axis',(0.,1.,0.));
#221=DIRECTION('refdir',(1.,0.,0.));
#222=DIRECTION('',(0.,0.,1.));
#223=DIRECTION('',(1.,0.,0.));
#224=DIRECTION('',(0.,0.,1.));
#225=DIRECTION('',(1.,0.,0.));
#226=DIRECTION('',(0.,0.,-1.));
#227=DIRECTION('',(1.,0.,0.));
#228=DIRECTION('',(0.,0.,1.));
#229=DIRECTION('',(0.,1.,0.));
#230=DIRECTION('',(0.,0.,1.));
#231=DIRECTION('',(0.,1.,0.));
#232=CARTESIAN_POINT('',(0.,0.,0.));
#233=CARTESIAN_POINT('',(10.0,0.0,-4.521));
#234=CARTESIAN_POINT('',(9.67,0.0,0.0));
#235=CARTESIAN_POINT('',(10.0,0.0,0.0));
#236=CARTESIAN_POINT('',(9.67,0.0,-4.521));
#237=CARTESIAN_POINT('',(10.0,0.0,-4.521));
#238=CARTESIAN_POINT('',(10.0,0.0,-4.521));
#239=CARTESIAN_POINT('',(10.0,0.0,0.0));
#240=STYLED_ITEM('color',(#34),#190);
#241=STYLED_ITEM('color',(#34),#191);
#242=STYLED_ITEM('color',(#34),#192);
#243=MANIFOLD_SOLID_BREP($,#244);
#244=CLOSED_SHELL('',(#245,#246,#247));
#245=ADVANCED_FACE($,(#251,#250),#268,.T.);
#246=ADVANCED_FACE($,(#252),#248,.F.);
#247=ADVANCED_FACE($,(#253),#249,.T.);
#248=PLANE($,#273);
#249=PLANE($,#274);
#250=FACE_BOUND($,#255,.T.);
#251=FACE_OUTER_BOUND($,#254,.T.);
#252=FACE_OUTER_BOUND($,#256,.T.);
#253=FACE_OUTER_BOUND($,#257,.T.);
#254=EDGE_LOOP($,(#264));
#255=EDGE_LOOP($,(#265));
#256=EDGE_LOOP($,(#266));
#257=EDGE_LOOP($,(#267));
#258=CIRCLE($,#271,0.3302);
#259=CIRCLE($,#272,0.3302);
#260=VERTEX_POINT('',#289);
#261=VERTEX_POINT('',#291);
#262=EDGE_CURVE($,#260,#260,#258,.T.);
#263=EDGE_CURVE($,#261,#261,#259,.T.);
#264=ORIENTED_EDGE($,*,*,#262,.F.);
#265=ORIENTED_EDGE($,*,*,#263,.F.);
#266=ORIENTED_EDGE($,*,*,#263,.T.);
#267=ORIENTED_EDGE($,*,*,#262,.T.);
#268=CYLINDRICAL_SURFACE($,#270,0.3302);
#269=AXIS2_PLACEMENT_3D('placement',#287,#275,#276);
#270=AXIS2_PLACEMENT_3D($,#288,#277,#278);
#271=AXIS2_PLACEMENT_3D($,#290,#279,#280);
#272=AXIS2_PLACEMENT_3D($,#292,#281,#282);
#273=AXIS2_PLACEMENT_3D($,#293,#283,#284);
#274=AXIS2_PLACEMENT_3D($,#294,#285,#286);
#275=DIRECTION('axis',(0.,1.,0.));
#276=DIRECTION('refdir',(1.,0.,0.));
#277=DIRECTION('',(0.,0.,1.));
#278=DIRECTION('',(1.,0.,0.));
#279=DIRECTION('',(0.,0.,1.));
#280=DIRECTION('',(1.,0.,0.));
#281=DIRECTION('',(0.,0.,-1.));
#282=DIRECTION('',(1.,0.,0.));
#283=DIRECTION('',(0.,0.,1.));
#284=DIRECTION('',(0.,1.,0.));
#285=DIRECTION('',(0.,0.,1.));
#286=DIRECTION('',(0.,1.,0.));
#287=CARTESIAN_POINT('',(0.,0.,0.));
#288=CARTESIAN_POINT('',(0.0,0.0,-4.521));
#289=CARTESIAN_POINT('',(-0.33,0.0,0.0));
#290=CARTESIAN_POINT('',(0.0,0.0,0.0));
#291=CARTESIAN_POINT('',(-0.33,0.0,-4.521));
#292=CARTESIAN_POINT('',(0.0,0.0,-4.521));
#293=CARTESIAN_POINT('',(0.0,0.0,-4.521));
#294=CARTESIAN_POINT('',(0.0,0.0,0.0));
#295=STYLED_ITEM('color',(#34),#245);
#296=STYLED_ITEM('color',(#34),#246);
#297=STYLED_ITEM('color',(#34),#247);
#299=MANIFOLD_SOLID_BREP($,#300);
#300=CLOSED_SHELL('',(#302,#351,#400,#449,#498,#547));
#301=STYLED_ITEM('',(#43),#302);
#302=ADVANCED_FACE('',(#308),#303,.T.);
#303=PLANE('',#304);
#304=AXIS2_PLACEMENT_3D('',#305,#306,#307);
#305=CARTESIAN_POINT('',(-1.756,-2.502,0.0));
#306=DIRECTION('',(0.0,-1.0,0.0));
#307=DIRECTION('',(0.,0.,1.));
#308=FACE_OUTER_BOUND('',#309,.T.);
#309=EDGE_LOOP('',(#310,#320,#330,#340));
#313=CARTESIAN_POINT('',(11.756,-2.502,0.0));
#312=VERTEX_POINT('',#313);
#315=CARTESIAN_POINT('',(-1.756,-2.502,0.0));
#314=VERTEX_POINT('',#315);
#311=EDGE_CURVE('',#312,#314,#316,.T.);
#316=LINE('',#313,#318);
#318=VECTOR('',#319,13.5128);
#319=DIRECTION('',(-1.0,0.0,0.0));
#310=ORIENTED_EDGE('',*,*,#311,.F.);
#323=CARTESIAN_POINT('',(11.756,-2.502,15.011));
#322=VERTEX_POINT('',#323);
#321=EDGE_CURVE('',#322,#312,#326,.T.);
#326=LINE('',#323,#328);
#328=VECTOR('',#329,15.0114);
#329=DIRECTION('',(0.0,0.0,-1.0));
#320=ORIENTED_EDGE('',*,*,#321,.F.);
#333=CARTESIAN_POINT('',(-1.756,-2.502,15.011));
#332=VERTEX_POINT('',#333);
#331=EDGE_CURVE('',#332,#322,#336,.T.);
#336=LINE('',#333,#338);
#338=VECTOR('',#339,13.5128);
#339=DIRECTION('',(1.0,0.0,0.0));
#330=ORIENTED_EDGE('',*,*,#331,.F.);
#341=EDGE_CURVE('',#314,#332,#346,.T.);
#346=LINE('',#315,#348);
#348=VECTOR('',#349,15.0114);
#349=DIRECTION('',(0.0,0.0,1.0));
#340=ORIENTED_EDGE('',*,*,#341,.F.);
#350=STYLED_ITEM('',(#43),#351);
#351=ADVANCED_FACE('',(#357),#352,.T.);
#352=PLANE('',#353);
#353=AXIS2_PLACEMENT_3D('',#354,#355,#356);
#354=CARTESIAN_POINT('',(11.756,-2.502,0.0));
#355=DIRECTION('',(1.0,0.0,0.0));
#356=DIRECTION('',(0.,0.,1.));
#357=FACE_OUTER_BOUND('',#358,.T.);
#358=EDGE_LOOP('',(#359,#369,#379,#389));
#362=CARTESIAN_POINT('',(11.756,2.502,0.0));
#361=VERTEX_POINT('',#362);
#360=EDGE_CURVE('',#361,#312,#365,.T.);
#365=LINE('',#362,#367);
#367=VECTOR('',#368,5.0038);
#368=DIRECTION('',(0.0,-1.0,0.0));
#359=ORIENTED_EDGE('',*,*,#360,.F.);
#372=CARTESIAN_POINT('',(11.756,2.502,15.011));
#371=VERTEX_POINT('',#372);
#370=EDGE_CURVE('',#371,#361,#375,.T.);
#375=LINE('',#372,#377);
#377=VECTOR('',#378,15.0114);
#378=DIRECTION('',(0.0,0.0,-1.0));
#369=ORIENTED_EDGE('',*,*,#370,.F.);
#380=EDGE_CURVE('',#322,#371,#385,.T.);
#385=LINE('',#323,#387);
#387=VECTOR('',#388,5.0038);
#388=DIRECTION('',(0.0,1.0,0.0));
#379=ORIENTED_EDGE('',*,*,#380,.F.);
#389=ORIENTED_EDGE('',*,*,#321,.T.);
#399=STYLED_ITEM('',(#43),#400);
#400=ADVANCED_FACE('',(#406),#401,.T.);
#401=PLANE('',#402);
#402=AXIS2_PLACEMENT_3D('',#403,#404,#405);
#403=CARTESIAN_POINT('',(11.756,2.502,0.0));
#404=DIRECTION('',(0.0,1.0,0.0));
#405=DIRECTION('',(0.,0.,1.));
#406=FACE_OUTER_BOUND('',#407,.T.);
#407=EDGE_LOOP('',(#408,#418,#428,#438));
#411=CARTESIAN_POINT('',(-1.756,2.502,0.0));
#410=VERTEX_POINT('',#411);
#409=EDGE_CURVE('',#410,#361,#414,.T.);
#414=LINE('',#411,#416);
#416=VECTOR('',#417,13.5128);
#417=DIRECTION('',(1.0,0.0,0.0));
#408=ORIENTED_EDGE('',*,*,#409,.F.);
#421=CARTESIAN_POINT('',(-1.756,2.502,15.011));
#420=VERTEX_POINT('',#421);
#419=EDGE_CURVE('',#420,#410,#424,.T.);
#424=LINE('',#421,#426);
#426=VECTOR('',#427,15.0114);
#427=DIRECTION('',(0.0,0.0,-1.0));
#418=ORIENTED_EDGE('',*,*,#419,.F.);
#429=EDGE_CURVE('',#371,#420,#434,.T.);
#434=LINE('',#372,#436);
#436=VECTOR('',#437,13.5128);
#437=DIRECTION('',(-1.0,0.0,0.0));
#428=ORIENTED_EDGE('',*,*,#429,.F.);
#438=ORIENTED_EDGE('',*,*,#370,.T.);
#448=STYLED_ITEM('',(#43),#449);
#449=ADVANCED_FACE('',(#455),#450,.T.);
#450=PLANE('',#451);
#451=AXIS2_PLACEMENT_3D('',#452,#453,#454);
#452=CARTESIAN_POINT('',(-1.756,2.502,0.0));
#453=DIRECTION('',(-1.0,0.0,0.0));
#454=DIRECTION('',(0.,0.,1.));
#455=FACE_OUTER_BOUND('',#456,.T.);
#456=EDGE_LOOP('',(#457,#467,#477,#487));
#458=EDGE_CURVE('',#314,#410,#463,.T.);
#463=LINE('',#315,#465);
#465=VECTOR('',#466,5.0038);
#466=DIRECTION('',(0.0,1.0,0.0));
#457=ORIENTED_EDGE('',*,*,#458,.F.);
#467=ORIENTED_EDGE('',*,*,#341,.T.);
#478=EDGE_CURVE('',#420,#332,#483,.T.);
#483=LINE('',#421,#485);
#485=VECTOR('',#486,5.0038);
#486=DIRECTION('',(0.0,-1.0,0.0));
#477=ORIENTED_EDGE('',*,*,#478,.F.);
#487=ORIENTED_EDGE('',*,*,#419,.T.);
#497=STYLED_ITEM('',(#43),#498);
#498=ADVANCED_FACE('',(#504),#499,.T.);
#499=PLANE('',#500);
#500=AXIS2_PLACEMENT_3D('',#501,#502,#503);
#501=CARTESIAN_POINT('',(-1.756,2.502,0.0));
#502=DIRECTION('',(0.0,0.0,-1.0));
#503=DIRECTION('',(0.,1.,0.));
#504=FACE_OUTER_BOUND('',#505,.T.);
#505=EDGE_LOOP('',(#506,#516,#526,#536));
#506=ORIENTED_EDGE('',*,*,#409,.T.);
#516=ORIENTED_EDGE('',*,*,#360,.T.);
#526=ORIENTED_EDGE('',*,*,#311,.T.);
#536=ORIENTED_EDGE('',*,*,#458,.T.);
#546=STYLED_ITEM('',(#43),#547);
#547=ADVANCED_FACE('',(#553),#548,.T.);
#548=PLANE('',#549);
#549=AXIS2_PLACEMENT_3D('',#550,#551,#552);
#550=CARTESIAN_POINT('',(-1.756,-2.502,15.011));
#551=DIRECTION('',(0.0,0.0,1.0));
#552=DIRECTION('',(0.,1.,0.));
#553=FACE_OUTER_BOUND('',#554,.T.);
#554=EDGE_LOOP('',(#555,#565,#575,#585));
#555=ORIENTED_EDGE('',*,*,#331,.T.);
#565=ORIENTED_EDGE('',*,*,#380,.T.);
#575=ORIENTED_EDGE('',*,*,#429,.T.);
#585=ORIENTED_EDGE('',*,*,#478,.T.);
ENDSEC;
END-ISO-10303-21;
