ISO-10303-21;
HEADER;
FILE_DESCRIPTION(('STEP AP214'),'1');
FILE_NAME('BGA9_BMM350_BOS','2024-08-19T10:15:44',(''),(''),'','','');
FILE_SCHEMA(('AUTOMOTIVE_DESIGN'));
ENDSEC;
DATA;
#1=SHAPE_DEFINITION_REPRESENTATION(#2,#3);
#2=PRODUCT_DEFINITION_SHAPE('',$,#4);
#3=SHAPE_REPRESENTATION('',(#188,#197,#206,#215,#224,#233,#242,#251,#260,#270,#326,#19),#11);
#4=PRODUCT_DEFINITION('design','example product_definition',#6,#5);
#5=PRODUCT_DEFINITION_CONTEXT('3D Mechanical Parts',#10,'design');
#6=PRODUCT_DEFINITION_FORMATION('1.0','first version',#8);
#7=APPLICATION_PROTOCOL_DEFINITION('international standard','automotive_design',2003,#10);
#8=PRODUCT('product','part','',(#9));
#9=PRODUCT_CONTEXT('3D Mechanical Parts',#10,'mechanical');
#10=APPLICATION_CONTEXT('Core Data for Automotive Mechanical Design Process');
#11=(GEOMETRIC_REPRESENTATION_CONTEXT(3) GLOBAL_UNCERTAINTY_ASSIGNED_CONTEXT((#12)) GLOBAL_UNIT_ASSIGNED_CONTEXT((#13,#14,#18)) REPRESENTATION_CONTEXT('ID1','3D'));
#12=UNCERTAINTY_MEASURE_WITH_UNIT(LENGTH_MEASURE(1.E-005),#13,'DISTANCE_ACCURACY_VALUE','Maximum model space distance between geometric entities at asserted connectivities');
#13=(LENGTH_UNIT() NAMED_UNIT(*) SI_UNIT(.MILLI.,.METRE.));
#14=(CONVERSION_BASED_UNIT('degree',#16) NAMED_UNIT(#15) PLANE_ANGLE_UNIT());
#15=DIMENSIONAL_EXPONENTS(0.,0.,0.,0.,0.,0.,0.);
#16=MEASURE_WITH_UNIT(PLANE_ANGLE_MEASURE(0.01745329252),#17);
#17=(NAMED_UNIT(*) PLANE_ANGLE_UNIT() SI_UNIT($,.RADIAN.));
#18=(NAMED_UNIT(*) SI_UNIT($,.STERADIAN.) SOLID_ANGLE_UNIT());
#19=AXIS2_PLACEMENT_3D('',#20,#21,#22);
#20=CARTESIAN_POINT('',(0.0,0.0,0.0));
#21=DIRECTION('',(0.0,0.0,1.0));
#22=DIRECTION('',(1.0,0.0,0.0));
#25=MECHANICAL_DESIGN_GEOMETRIC_PRESENTATION_REPRESENTATION($,(#190,#199,#208,#217,#226,#235,#244,#253,#262,#322,#323,#324,#328,#377,#426,#475,#524,#573),#11);
#26=PRODUCT_CATEGORY_RELATIONSHIP('','',#27,#28);
#27=PRODUCT_CATEGORY('part','');
#28=PRODUCT_RELATED_PRODUCT_CATEGORY('','',(#8));
#34=PRESENTATION_STYLE_ASSIGNMENT((#35,#40));
#35=SURFACE_STYLE_USAGE(.BOTH.,#36);
#36=SURFACE_SIDE_STYLE('',(#37));
#37=SURFACE_STYLE_FILL_AREA(#38);
#38=FILL_AREA_STYLE('',(#39));
#39=FILL_AREA_STYLE_COLOUR('',#41);
#40=CURVE_STYLE('',#42,POSITIVE_LENGTH_MEASURE(0.1),#41);
#41=COLOUR_RGB('Aluminum',0.725,0.725,0.725);
#42=DRAUGHTING_PRE_DEFINED_CURVE_FONT('continuous');
#43=PRESENTATION_STYLE_ASSIGNMENT((#44,#49));
#44=SURFACE_STYLE_USAGE(.BOTH.,#45);
#45=SURFACE_SIDE_STYLE('',(#46));
#46=SURFACE_STYLE_FILL_AREA(#47);
#47=FILL_AREA_STYLE('',(#48));
#48=FILL_AREA_STYLE_COLOUR('',#50);
#49=CURVE_STYLE('',#51,POSITIVE_LENGTH_MEASURE(0.1),#50);
#50=COLOUR_RGB('Black',0.196,0.196,0.196);
#51=DRAUGHTING_PRE_DEFINED_CURVE_FONT('continuous');
#52=PRESENTATION_STYLE_ASSIGNMENT((#53,#58));
#53=SURFACE_STYLE_USAGE(.BOTH.,#54);
#54=SURFACE_SIDE_STYLE('',(#55));
#55=SURFACE_STYLE_FILL_AREA(#56);
#56=FILL_AREA_STYLE('',(#57));
#57=FILL_AREA_STYLE_COLOUR('',#59);
#58=CURVE_STYLE('',#60,POSITIVE_LENGTH_MEASURE(0.1),#59);
#59=COLOUR_RGB('Pin1',0.588,0.588,0.588);
#60=DRAUGHTING_PRE_DEFINED_CURVE_FONT('continuous');
#61=PRESENTATION_STYLE_ASSIGNMENT((#62,#67));
#62=SURFACE_STYLE_USAGE(.BOTH.,#63);
#63=SURFACE_SIDE_STYLE('',(#64));
#64=SURFACE_STYLE_FILL_AREA(#65);
#65=FILL_AREA_STYLE('',(#66));
#66=FILL_AREA_STYLE_COLOUR('',#68);
#67=CURVE_STYLE('',#69,POSITIVE_LENGTH_MEASURE(0.1),#68);
#68=COLOUR_RGB('HeatTab',0.588,0.588,0.588);
#69=DRAUGHTING_PRE_DEFINED_CURVE_FONT('continuous');
#70=PRESENTATION_STYLE_ASSIGNMENT((#71,#76));
#71=SURFACE_STYLE_USAGE(.BOTH.,#72);
#72=SURFACE_SIDE_STYLE('',(#73));
#73=SURFACE_STYLE_FILL_AREA(#74);
#74=FILL_AREA_STYLE('',(#75));
#75=FILL_AREA_STYLE_COLOUR('',#77);
#76=CURVE_STYLE('',#78,POSITIVE_LENGTH_MEASURE(0.1),#77);
#77=COLOUR_RGB('Gold',0.843,0.686,0.0);
#78=DRAUGHTING_PRE_DEFINED_CURVE_FONT('continuous');
#79=PRESENTATION_STYLE_ASSIGNMENT((#80,#85));
#80=SURFACE_STYLE_USAGE(.BOTH.,#81);
#81=SURFACE_SIDE_STYLE('',(#82));
#82=SURFACE_STYLE_FILL_AREA(#83);
#83=FILL_AREA_STYLE('',(#84));
#84=FILL_AREA_STYLE_COLOUR('',#86);
#85=CURVE_STYLE('',#87,POSITIVE_LENGTH_MEASURE(0.1),#86);
#86=COLOUR_RGB('Brown',0.459,0.345,0.176);
#87=DRAUGHTING_PRE_DEFINED_CURVE_FONT('continuous');
#88=PRESENTATION_STYLE_ASSIGNMENT((#89,#94));
#89=SURFACE_STYLE_USAGE(.BOTH.,#90);
#90=SURFACE_SIDE_STYLE('',(#91));
#91=SURFACE_STYLE_FILL_AREA(#92);
#92=FILL_AREA_STYLE('',(#93));
#93=FILL_AREA_STYLE_COLOUR('',#95);
#94=CURVE_STYLE('',#96,POSITIVE_LENGTH_MEASURE(0.1),#95);
#95=COLOUR_RGB('Tan',0.784,0.686,0.51);
#96=DRAUGHTING_PRE_DEFINED_CURVE_FONT('continuous');
#97=PRESENTATION_STYLE_ASSIGNMENT((#98,#103));
#98=SURFACE_STYLE_USAGE(.BOTH.,#99);
#99=SURFACE_SIDE_STYLE('',(#100));
#100=SURFACE_STYLE_FILL_AREA(#101);
#101=FILL_AREA_STYLE('',(#102));
#102=FILL_AREA_STYLE_COLOUR('',#104);
#103=CURVE_STYLE('',#105,POSITIVE_LENGTH_MEASURE(0.1),#104);
#104=COLOUR_RGB('Gray',0.431,0.431,0.431);
#105=DRAUGHTING_PRE_DEFINED_CURVE_FONT('continuous');
#106=PRESENTATION_STYLE_ASSIGNMENT((#107,#112));
#107=SURFACE_STYLE_USAGE(.BOTH.,#108);
#108=SURFACE_SIDE_STYLE('',(#109));
#109=SURFACE_STYLE_FILL_AREA(#110);
#110=FILL_AREA_STYLE('',(#111));
#111=FILL_AREA_STYLE_COLOUR('',#113);
#112=CURVE_STYLE('',#114,POSITIVE_LENGTH_MEASURE(0.1),#113);
#113=COLOUR_RGB('Red',0.6,0.0,0.0);
#114=DRAUGHTING_PRE_DEFINED_CURVE_FONT('continuous');
#115=PRESENTATION_STYLE_ASSIGNMENT((#116,#121));
#116=SURFACE_STYLE_USAGE(.BOTH.,#117);
#117=SURFACE_SIDE_STYLE('',(#118));
#118=SURFACE_STYLE_FILL_AREA(#119);
#119=FILL_AREA_STYLE('',(#120));
#120=FILL_AREA_STYLE_COLOUR('',#122);
#121=CURVE_STYLE('',#123,POSITIVE_LENGTH_MEASURE(0.1),#122);
#122=COLOUR_RGB('Blue',0.157,0.157,0.588);
#123=DRAUGHTING_PRE_DEFINED_CURVE_FONT('continuous');
#124=PRESENTATION_STYLE_ASSIGNMENT((#125,#130));
#125=SURFACE_STYLE_USAGE(.BOTH.,#126);
#126=SURFACE_SIDE_STYLE('',(#127));
#127=SURFACE_STYLE_FILL_AREA(#128);
#128=FILL_AREA_STYLE('',(#129));
#129=FILL_AREA_STYLE_COLOUR('',#131);
#130=CURVE_STYLE('',#132,POSITIVE_LENGTH_MEASURE(0.1),#131);
#131=COLOUR_RGB('Maroon',0.294,0.0,0.0);
#132=DRAUGHTING_PRE_DEFINED_CURVE_FONT('continuous');
#133=PRESENTATION_STYLE_ASSIGNMENT((#134,#139));
#134=SURFACE_STYLE_USAGE(.BOTH.,#135);
#135=SURFACE_SIDE_STYLE('',(#136));
#136=SURFACE_STYLE_FILL_AREA(#137);
#137=FILL_AREA_STYLE('',(#138));
#138=FILL_AREA_STYLE_COLOUR('',#140);
#139=CURVE_STYLE('',#141,POSITIVE_LENGTH_MEASURE(0.1),#140);
#140=COLOUR_RGB('Green',0.0,0.294,0.0);
#141=DRAUGHTING_PRE_DEFINED_CURVE_FONT('continuous');
#142=PRESENTATION_STYLE_ASSIGNMENT((#143,#148));
#143=SURFACE_STYLE_USAGE(.BOTH.,#144);
#144=SURFACE_SIDE_STYLE('',(#145));
#145=SURFACE_STYLE_FILL_AREA(#146);
#146=FILL_AREA_STYLE('',(#147));
#147=FILL_AREA_STYLE_COLOUR('',#149);
#148=CURVE_STYLE('',#150,POSITIVE_LENGTH_MEASURE(0.1),#149);
#149=COLOUR_RGB('Pin1Wrap',0.98,0.706,0.176);
#150=DRAUGHTING_PRE_DEFINED_CURVE_FONT('continuous');
#151=PRESENTATION_STYLE_ASSIGNMENT((#152,#157));
#152=SURFACE_STYLE_USAGE(.BOTH.,#153);
#153=SURFACE_SIDE_STYLE('',(#154));
#154=SURFACE_STYLE_FILL_AREA(#155);
#155=FILL_AREA_STYLE('',(#156));
#156=FILL_AREA_STYLE_COLOUR('',#158);
#157=CURVE_STYLE('',#159,POSITIVE_LENGTH_MEASURE(0.1),#158);
#158=COLOUR_RGB('Pin1Rad',0.588,0.588,0.588);
#159=DRAUGHTING_PRE_DEFINED_CURVE_FONT('continuous');
#160=PRESENTATION_STYLE_ASSIGNMENT((#161,#166));
#161=SURFACE_STYLE_USAGE(.BOTH.,#162);
#162=SURFACE_SIDE_STYLE('',(#163));
#163=SURFACE_STYLE_FILL_AREA(#164);
#164=FILL_AREA_STYLE('',(#165));
#165=FILL_AREA_STYLE_COLOUR('',#167);
#166=CURVE_STYLE('',#168,POSITIVE_LENGTH_MEASURE(0.1),#167);
#167=COLOUR_RGB('Pin1Axial',0.98,0.706,0.176);
#168=DRAUGHTING_PRE_DEFINED_CURVE_FONT('continuous');
#169=PRESENTATION_STYLE_ASSIGNMENT((#170,#175));
#170=SURFACE_STYLE_USAGE(.BOTH.,#171);
#171=SURFACE_SIDE_STYLE('',(#172));
#172=SURFACE_STYLE_FILL_AREA(#173);
#173=FILL_AREA_STYLE('',(#174));
#174=FILL_AREA_STYLE_COLOUR('',#176);
#175=CURVE_STYLE('',#177,POSITIVE_LENGTH_MEASURE(0.1),#176);
#176=COLOUR_RGB('Pin1Tant',0.459,0.345,0.176);
#177=DRAUGHTING_PRE_DEFINED_CURVE_FONT('continuous');
#178=PRESENTATION_STYLE_ASSIGNMENT((#179,#184));
#179=SURFACE_STYLE_USAGE(.BOTH.,#180);
#180=SURFACE_SIDE_STYLE('',(#181));
#181=SURFACE_STYLE_FILL_AREA(#182);
#182=FILL_AREA_STYLE('',(#183));
#183=FILL_AREA_STYLE_COLOUR('',#185);
#184=CURVE_STYLE('',#186,POSITIVE_LENGTH_MEASURE(0.1),#185);
#185=COLOUR_RGB('Shroud',0.235,0.235,0.235);
#186=DRAUGHTING_PRE_DEFINED_CURVE_FONT('continuous');
#188=MANIFOLD_SOLID_BREP($,#189);
#189=CLOSED_SHELL('',(#191));
#190=STYLED_ITEM('color',(#34),#191);
#191=ADVANCED_FACE('',(),#192,.T.);
#192=SPHERICAL_SURFACE('',#193,0.1397);
#193=AXIS2_PLACEMENT_3D('',#194,#195,#196);
#194=CARTESIAN_POINT('',(-0.4,0.4,0.14));
#195=DIRECTION('',(0.,0.,-1.));
#196=DIRECTION('',(-1.,0.,0.));
#197=MANIFOLD_SOLID_BREP($,#198);
#198=CLOSED_SHELL('',(#200));
#199=STYLED_ITEM('color',(#34),#200);
#200=ADVANCED_FACE('',(),#201,.T.);
#201=SPHERICAL_SURFACE('',#202,0.1397);
#202=AXIS2_PLACEMENT_3D('',#203,#204,#205);
#203=CARTESIAN_POINT('',(0.0,0.4,0.14));
#204=DIRECTION('',(0.,0.,-1.));
#205=DIRECTION('',(-1.,0.,0.));
#206=MANIFOLD_SOLID_BREP($,#207);
#207=CLOSED_SHELL('',(#209));
#208=STYLED_ITEM('color',(#34),#209);
#209=ADVANCED_FACE('',(),#210,.T.);
#210=SPHERICAL_SURFACE('',#211,0.1397);
#211=AXIS2_PLACEMENT_3D('',#212,#213,#214);
#212=CARTESIAN_POINT('',(0.4,0.4,0.14));
#213=DIRECTION('',(0.,0.,-1.));
#214=DIRECTION('',(-1.,0.,0.));
#215=MANIFOLD_SOLID_BREP($,#216);
#216=CLOSED_SHELL('',(#218));
#217=STYLED_ITEM('color',(#34),#218);
#218=ADVANCED_FACE('',(),#219,.T.);
#219=SPHERICAL_SURFACE('',#220,0.1397);
#220=AXIS2_PLACEMENT_3D('',#221,#222,#223);
#221=CARTESIAN_POINT('',(-0.4,0.0,0.14));
#222=DIRECTION('',(0.,0.,-1.));
#223=DIRECTION('',(-1.,0.,0.));
#224=MANIFOLD_SOLID_BREP($,#225);
#225=CLOSED_SHELL('',(#227));
#226=STYLED_ITEM('color',(#34),#227);
#227=ADVANCED_FACE('',(),#228,.T.);
#228=SPHERICAL_SURFACE('',#229,0.1397);
#229=AXIS2_PLACEMENT_3D('',#230,#231,#232);
#230=CARTESIAN_POINT('',(0.0,0.0,0.14));
#231=DIRECTION('',(0.,0.,-1.));
#232=DIRECTION('',(-1.,0.,0.));
#233=MANIFOLD_SOLID_BREP($,#234);
#234=CLOSED_SHELL('',(#236));
#235=STYLED_ITEM('color',(#34),#236);
#236=ADVANCED_FACE('',(),#237,.T.);
#237=SPHERICAL_SURFACE('',#238,0.1397);
#238=AXIS2_PLACEMENT_3D('',#239,#240,#241);
#239=CARTESIAN_POINT('',(0.4,0.0,0.14));
#240=DIRECTION('',(0.,0.,-1.));
#241=DIRECTION('',(-1.,0.,0.));
#242=MANIFOLD_SOLID_BREP($,#243);
#243=CLOSED_SHELL('',(#245));
#244=STYLED_ITEM('color',(#34),#245);
#245=ADVANCED_FACE('',(),#246,.T.);
#246=SPHERICAL_SURFACE('',#247,0.1397);
#247=AXIS2_PLACEMENT_3D('',#248,#249,#250);
#248=CARTESIAN_POINT('',(-0.4,-0.4,0.14));
#249=DIRECTION('',(0.,0.,-1.));
#250=DIRECTION('',(-1.,0.,0.));
#251=MANIFOLD_SOLID_BREP($,#252);
#252=CLOSED_SHELL('',(#254));
#253=STYLED_ITEM('color',(#34),#254);
#254=ADVANCED_FACE('',(),#255,.T.);
#255=SPHERICAL_SURFACE('',#256,0.1397);
#256=AXIS2_PLACEMENT_3D('',#257,#258,#259);
#257=CARTESIAN_POINT('',(0.0,-0.4,0.14));
#258=DIRECTION('',(0.,0.,-1.));
#259=DIRECTION('',(-1.,0.,0.));
#260=MANIFOLD_SOLID_BREP($,#261);
#261=CLOSED_SHELL('',(#263));
#262=STYLED_ITEM('color',(#34),#263);
#263=ADVANCED_FACE('',(),#264,.T.);
#264=SPHERICAL_SURFACE('',#265,0.1397);
#265=AXIS2_PLACEMENT_3D('',#266,#267,#268);
#266=CARTESIAN_POINT('',(0.4,-0.4,0.14));
#267=DIRECTION('',(0.,0.,-1.));
#268=DIRECTION('',(-1.,0.,0.));
#270=MANIFOLD_SOLID_BREP($,#271);
#271=CLOSED_SHELL('',(#272,#273,#274));
#272=ADVANCED_FACE($,(#278,#277),#295,.T.);
#273=ADVANCED_FACE($,(#279),#275,.F.);
#274=ADVANCED_FACE($,(#280),#276,.T.);
#275=PLANE($,#300);
#276=PLANE($,#301);
#277=FACE_BOUND($,#282,.T.);
#278=FACE_OUTER_BOUND($,#281,.T.);
#279=FACE_OUTER_BOUND($,#283,.T.);
#280=FACE_OUTER_BOUND($,#284,.T.);
#281=EDGE_LOOP($,(#291));
#282=EDGE_LOOP($,(#292));
#283=EDGE_LOOP($,(#293));
#284=EDGE_LOOP($,(#294));
#285=CIRCLE($,#298,0.03175);
#286=CIRCLE($,#299,0.03175);
#287=VERTEX_POINT('',#316);
#288=VERTEX_POINT('',#318);
#289=EDGE_CURVE($,#287,#287,#285,.T.);
#290=EDGE_CURVE($,#288,#288,#286,.T.);
#291=ORIENTED_EDGE($,*,*,#289,.F.);
#292=ORIENTED_EDGE($,*,*,#290,.F.);
#293=ORIENTED_EDGE($,*,*,#290,.T.);
#294=ORIENTED_EDGE($,*,*,#289,.T.);
#295=CYLINDRICAL_SURFACE($,#297,0.03175);
#296=AXIS2_PLACEMENT_3D('placement',#314,#302,#303);
#297=AXIS2_PLACEMENT_3D($,#315,#304,#305);
#298=AXIS2_PLACEMENT_3D($,#317,#306,#307);
#299=AXIS2_PLACEMENT_3D($,#319,#308,#309);
#300=AXIS2_PLACEMENT_3D($,#320,#310,#311);
#301=AXIS2_PLACEMENT_3D($,#321,#312,#313);
#302=DIRECTION('axis',(0.,1.,0.));
#303=DIRECTION('refdir',(1.,0.,0.));
#304=DIRECTION('',(0.,0.,1.));
#305=DIRECTION('',(1.,0.,0.));
#306=DIRECTION('',(0.,0.,1.));
#307=DIRECTION('',(1.,0.,0.));
#308=DIRECTION('',(0.,0.,-1.));
#309=DIRECTION('',(1.,0.,0.));
#310=DIRECTION('',(0.,0.,1.));
#311=DIRECTION('',(0.,1.,0.));
#312=DIRECTION('',(0.,0.,1.));
#313=DIRECTION('',(0.,1.,0.));
#314=CARTESIAN_POINT('',(0.,0.,0.));
#315=CARTESIAN_POINT('',(-0.508,0.508,0.533));
#316=CARTESIAN_POINT('',(-0.54,0.508,0.536));
#317=CARTESIAN_POINT('',(-0.508,0.508,0.536));
#318=CARTESIAN_POINT('',(-0.54,0.508,0.533));
#319=CARTESIAN_POINT('',(-0.508,0.508,0.533));
#320=CARTESIAN_POINT('',(-0.508,0.508,0.533));
#321=CARTESIAN_POINT('',(-0.508,0.508,0.536));
#322=STYLED_ITEM('color',(#52),#272);
#323=STYLED_ITEM('color',(#52),#273);
#324=STYLED_ITEM('color',(#52),#274);
#326=MANIFOLD_SOLID_BREP($,#327);
#327=CLOSED_SHELL('',(#329,#378,#427,#476,#525,#574));
#328=STYLED_ITEM('',(#43),#329);
#329=ADVANCED_FACE('',(#335),#330,.T.);
#330=PLANE('',#331);
#331=AXIS2_PLACEMENT_3D('',#332,#333,#334);
#332=CARTESIAN_POINT('',(-0.635,-0.635,0.278));
#333=DIRECTION('',(0.0,-1.0,0.0));
#334=DIRECTION('',(0.,0.,1.));
#335=FACE_OUTER_BOUND('',#336,.T.);
#336=EDGE_LOOP('',(#337,#347,#357,#367));
#340=CARTESIAN_POINT('',(0.635,-0.635,0.278));
#339=VERTEX_POINT('',#340);
#342=CARTESIAN_POINT('',(-0.635,-0.635,0.278));
#341=VERTEX_POINT('',#342);
#338=EDGE_CURVE('',#339,#341,#343,.T.);
#343=LINE('',#340,#345);
#345=VECTOR('',#346,1.27);
#346=DIRECTION('',(-1.0,0.0,0.0));
#337=ORIENTED_EDGE('',*,*,#338,.F.);
#350=CARTESIAN_POINT('',(0.635,-0.635,0.533));
#349=VERTEX_POINT('',#350);
#348=EDGE_CURVE('',#349,#339,#353,.T.);
#353=LINE('',#350,#355);
#355=VECTOR('',#356,0.2550000000066);
#356=DIRECTION('',(0.0,0.0,-1.0));
#347=ORIENTED_EDGE('',*,*,#348,.F.);
#360=CARTESIAN_POINT('',(-0.635,-0.635,0.533));
#359=VERTEX_POINT('',#360);
#358=EDGE_CURVE('',#359,#349,#363,.T.);
#363=LINE('',#360,#365);
#365=VECTOR('',#366,1.27);
#366=DIRECTION('',(1.0,0.0,0.0));
#357=ORIENTED_EDGE('',*,*,#358,.F.);
#368=EDGE_CURVE('',#341,#359,#373,.T.);
#373=LINE('',#342,#375);
#375=VECTOR('',#376,0.2550000000066);
#376=DIRECTION('',(0.0,0.0,1.0));
#367=ORIENTED_EDGE('',*,*,#368,.F.);
#377=STYLED_ITEM('',(#43),#378);
#378=ADVANCED_FACE('',(#384),#379,.T.);
#379=PLANE('',#380);
#380=AXIS2_PLACEMENT_3D('',#381,#382,#383);
#381=CARTESIAN_POINT('',(0.635,-0.635,0.278));
#382=DIRECTION('',(1.0,0.0,0.0));
#383=DIRECTION('',(0.,0.,1.));
#384=FACE_OUTER_BOUND('',#385,.T.);
#385=EDGE_LOOP('',(#386,#396,#406,#416));
#389=CARTESIAN_POINT('',(0.635,0.635,0.278));
#388=VERTEX_POINT('',#389);
#387=EDGE_CURVE('',#388,#339,#392,.T.);
#392=LINE('',#389,#394);
#394=VECTOR('',#395,1.27);
#395=DIRECTION('',(0.0,-1.0,0.0));
#386=ORIENTED_EDGE('',*,*,#387,.F.);
#399=CARTESIAN_POINT('',(0.635,0.635,0.533));
#398=VERTEX_POINT('',#399);
#397=EDGE_CURVE('',#398,#388,#402,.T.);
#402=LINE('',#399,#404);
#404=VECTOR('',#405,0.2550000000066);
#405=DIRECTION('',(0.0,0.0,-1.0));
#396=ORIENTED_EDGE('',*,*,#397,.F.);
#407=EDGE_CURVE('',#349,#398,#412,.T.);
#412=LINE('',#350,#414);
#414=VECTOR('',#415,1.27);
#415=DIRECTION('',(0.0,1.0,0.0));
#406=ORIENTED_EDGE('',*,*,#407,.F.);
#416=ORIENTED_EDGE('',*,*,#348,.T.);
#426=STYLED_ITEM('',(#43),#427);
#427=ADVANCED_FACE('',(#433),#428,.T.);
#428=PLANE('',#429);
#429=AXIS2_PLACEMENT_3D('',#430,#431,#432);
#430=CARTESIAN_POINT('',(0.635,0.635,0.278));
#431=DIRECTION('',(0.0,1.0,0.0));
#432=DIRECTION('',(0.,0.,1.));
#433=FACE_OUTER_BOUND('',#434,.T.);
#434=EDGE_LOOP('',(#435,#445,#455,#465));
#438=CARTESIAN_POINT('',(-0.635,0.635,0.278));
#437=VERTEX_POINT('',#438);
#436=EDGE_CURVE('',#437,#388,#441,.T.);
#441=LINE('',#438,#443);
#443=VECTOR('',#444,1.27);
#444=DIRECTION('',(1.0,0.0,0.0));
#435=ORIENTED_EDGE('',*,*,#436,.F.);
#448=CARTESIAN_POINT('',(-0.635,0.635,0.533));
#447=VERTEX_POINT('',#448);
#446=EDGE_CURVE('',#447,#437,#451,.T.);
#451=LINE('',#448,#453);
#453=VECTOR('',#454,0.2550000000066);
#454=DIRECTION('',(0.0,0.0,-1.0));
#445=ORIENTED_EDGE('',*,*,#446,.F.);
#456=EDGE_CURVE('',#398,#447,#461,.T.);
#461=LINE('',#399,#463);
#463=VECTOR('',#464,1.27);
#464=DIRECTION('',(-1.0,0.0,0.0));
#455=ORIENTED_EDGE('',*,*,#456,.F.);
#465=ORIENTED_EDGE('',*,*,#397,.T.);
#475=STYLED_ITEM('',(#43),#476);
#476=ADVANCED_FACE('',(#482),#477,.T.);
#477=PLANE('',#478);
#478=AXIS2_PLACEMENT_3D('',#479,#480,#481);
#479=CARTESIAN_POINT('',(-0.635,0.635,0.278));
#480=DIRECTION('',(-1.0,0.0,0.0));
#481=DIRECTION('',(0.,0.,1.));
#482=FACE_OUTER_BOUND('',#483,.T.);
#483=EDGE_LOOP('',(#484,#494,#504,#514));
#485=EDGE_CURVE('',#341,#437,#490,.T.);
#490=LINE('',#342,#492);
#492=VECTOR('',#493,1.27);
#493=DIRECTION('',(0.0,1.0,0.0));
#484=ORIENTED_EDGE('',*,*,#485,.F.);
#494=ORIENTED_EDGE('',*,*,#368,.T.);
#505=EDGE_CURVE('',#447,#359,#510,.T.);
#510=LINE('',#448,#512);
#512=VECTOR('',#513,1.27);
#513=DIRECTION('',(0.0,-1.0,0.0));
#504=ORIENTED_EDGE('',*,*,#505,.F.);
#514=ORIENTED_EDGE('',*,*,#446,.T.);
#524=STYLED_ITEM('',(#43),#525);
#525=ADVANCED_FACE('',(#531),#526,.T.);
#526=PLANE('',#527);
#527=AXIS2_PLACEMENT_3D('',#528,#529,#530);
#528=CARTESIAN_POINT('',(-0.635,0.635,0.278));
#529=DIRECTION('',(0.0,0.0,-1.0));
#530=DIRECTION('',(0.,1.,0.));
#531=FACE_OUTER_BOUND('',#532,.T.);
#532=EDGE_LOOP('',(#533,#543,#553,#563));
#533=ORIENTED_EDGE('',*,*,#436,.T.);
#543=ORIENTED_EDGE('',*,*,#387,.T.);
#553=ORIENTED_EDGE('',*,*,#338,.T.);
#563=ORIENTED_EDGE('',*,*,#485,.T.);
#573=STYLED_ITEM('',(#43),#574);
#574=ADVANCED_FACE('',(#580),#575,.T.);
#575=PLANE('',#576);
#576=AXIS2_PLACEMENT_3D('',#577,#578,#579);
#577=CARTESIAN_POINT('',(-0.635,-0.635,0.533));
#578=DIRECTION('',(0.0,0.0,1.0));
#579=DIRECTION('',(0.,1.,0.));
#580=FACE_OUTER_BOUND('',#581,.T.);
#581=EDGE_LOOP('',(#582,#592,#602,#612));
#582=ORIENTED_EDGE('',*,*,#358,.T.);
#592=ORIENTED_EDGE('',*,*,#407,.T.);
#602=ORIENTED_EDGE('',*,*,#456,.T.);
#612=ORIENTED_EDGE('',*,*,#505,.T.);
ENDSEC;
END-ISO-10303-21;
