ISO-10303-21;

HEADER;
FILE_DESCRIPTION((' '),'2;1');
FILE_NAME( 'Adhesive bolts  M2.5 x 6.stp',
           '2022-09-03T12:05:53',
           (' '),
           ('--- Datakit www.datakit.com---'),
           ' Datakit CrossCadWare V2022.3  Jun 15 2022',
           'DATAKIT 2022 (c)',
           ' ');
FILE_SCHEMA(('AP242_MANAGED_MODEL_BASED_3D_ENGINEERING_MIM_LF { 1 0 10303 442 1 1 4 }'));
ENDSEC;

DATA;
#1=APPLICATION_CONTEXT('Managed model based 3d engineering');
#2=APPLICATION_PROTOCOL_DEFINITION('international standard','ap242_managed_model_based_3d_engineering',2013,#1);
#3=(LENGTH_UNIT()NAMED_UNIT(*)SI_UNIT(.MILLI.,.METRE.));
#4=(NAMED_UNIT(*)PLANE_ANGLE_UNIT()SI_UNIT($,.RADIAN.));
#5=( GEOMETRIC_REPRESENTATION_CONTEXT(3)
       GLOBAL_UNCERTAINTY_ASSIGNED_CONTEXT((#6)) GLOBAL_UNIT_ASSIGNED_CONTEXT
  ((#3,#4)) REPRESENTATION_CONTEXT('Context #1',
  '3D Context with UNIT and UNCERTAINTY') );
#6=UNCERTAINTY_MEASURE_WITH_UNIT(LENGTH_MEASURE(0.005),#3,'distance_accuracy_value','Confusion accuracy');
#7=PRODUCT_CONTEXT('',#1,'mechanical');
#8=PRODUCT('Adhesive bolts  M2.5 x 6','','',(#7));
#9=PRODUCT_DEFINITION_FORMATION('','',#8);
#10=PRODUCT_DEFINITION_CONTEXT('part definition',#1,'design');
#11=PRODUCT_DEFINITION('design','',#9,#10);
#12=PRODUCT_DEFINITION_SHAPE('','',#11);
#13=PRODUCT_CATEGORY('part',$);
#14=PRODUCT_RELATED_PRODUCT_CATEGORY('part',$,(#8));
#15=PRODUCT_CATEGORY_RELATIONSHIP('','',#13,#14);
#16=CARTESIAN_POINT('',(0.0,1.1,3.4));
#17=VERTEX_POINT('',#16);
#18=CARTESIAN_POINT('',(0.0,1.1,0.0));
#19=DIRECTION('',(0.0,1.0,0.0));
#20=DIRECTION('',(0.0,-0.0,1.0));
#21=AXIS2_PLACEMENT_3D('',#18,#19,#20);
#22=CIRCLE('',#21,3.4);
#23=EDGE_CURVE('n° 113',#17,#17,#22,.T.);
#24=ORIENTED_EDGE('',*,*,#23,.T.);
#25=EDGE_LOOP('',(#24));
#26=FACE_OUTER_BOUND('',#25,.T.);
#27=CARTESIAN_POINT('',(0.0,1.1,1.25));
#28=VERTEX_POINT('',#27);
#29=CARTESIAN_POINT('',(0.0,1.1,0.0));
#30=DIRECTION('',(0.0,1.0,0.0));
#31=DIRECTION('',(0.0,-0.0,1.0));
#32=AXIS2_PLACEMENT_3D('',#29,#30,#31);
#33=CIRCLE('',#32,1.25);
#34=EDGE_CURVE('n° 59',#28,#28,#33,.T.);
#35=ORIENTED_EDGE('',*,*,#34,.F.);
#36=EDGE_LOOP('',(#35));
#37=FACE_BOUND('',#36,.T.);
#38=CARTESIAN_POINT('',(0.0,1.1,0.0));
#39=DIRECTION('',(0.0,1.0,0.0));
#40=DIRECTION('',(0.0,-0.0,1.0));
#41=AXIS2_PLACEMENT_3D('',#38,#39,#40);
#42=PLANE('',#41);
#43=ADVANCED_FACE('n° 56',(#26,#37),#42,.T.);
#44=CARTESIAN_POINT('',(0.0,0.1,3.5));
#45=VERTEX_POINT('',#44);
#46=CARTESIAN_POINT('',(0.0,0.1,0.0));
#47=DIRECTION('',(-0.0,1.0,-0.0));
#48=DIRECTION('',(0.0,0.0,1.0));
#49=AXIS2_PLACEMENT_3D('',#46,#47,#48);
#50=CIRCLE('',#49,3.5);
#51=EDGE_CURVE('n° 101',#45,#45,#50,.T.);
#52=ORIENTED_EDGE('',*,*,#51,.T.);
#53=EDGE_LOOP('',(#52));
#54=FACE_OUTER_BOUND('',#53,.T.);
#55=CARTESIAN_POINT('',(0.0,1.0,3.5));
#56=VERTEX_POINT('',#55);
#57=CARTESIAN_POINT('',(0.0,1.0,0.0));
#58=DIRECTION('',(0.0,-1.0,0.0));
#59=DIRECTION('',(0.0,0.0,1.0));
#60=AXIS2_PLACEMENT_3D('',#57,#58,#59);
#61=CIRCLE('',#60,3.5);
#62=EDGE_CURVE('n° 95',#56,#56,#61,.T.);
#63=ORIENTED_EDGE('',*,*,#62,.T.);
#64=EDGE_LOOP('',(#63));
#65=FACE_BOUND('',#64,.T.);
#66=CARTESIAN_POINT('',(0.0,1.1,0.0));
#67=DIRECTION('',(-0.0,-1.0,-0.0));
#68=DIRECTION('',(0.0,0.0,-1.0));
#69=AXIS2_PLACEMENT_3D('',#66,#67,#68);
#70=CYLINDRICAL_SURFACE('',#69,3.5);
#71=ADVANCED_FACE('n° 25',(#54,#65),#70,.T.);
#72=CARTESIAN_POINT('',(0.0,0.0,3.4));
#73=VERTEX_POINT('',#72);
#74=CARTESIAN_POINT('',(0.0,0.0,0.0));
#75=DIRECTION('',(-0.0,-1.0,-0.0));
#76=DIRECTION('',(0.0,-0.0,1.0));
#77=AXIS2_PLACEMENT_3D('',#74,#75,#76);
#78=CIRCLE('',#77,3.4);
#79=EDGE_CURVE('n° 107',#73,#73,#78,.T.);
#80=ORIENTED_EDGE('',*,*,#79,.T.);
#81=EDGE_LOOP('',(#80));
#82=FACE_OUTER_BOUND('',#81,.T.);
#83=CARTESIAN_POINT('',(0.0,0.0,0.0));
#84=DIRECTION('',(0.0,1.0,0.0));
#85=DIRECTION('',(0.0,-0.0,1.0));
#86=AXIS2_PLACEMENT_3D('',#83,#84,#85);
#87=PLANE('',#86);
#88=ADVANCED_FACE('n° 16',(#82),#87,.F.);
#89=CARTESIAN_POINT('',(0.0,6.9,1.25));
#90=VERTEX_POINT('',#89);
#91=CARTESIAN_POINT('',(0.0,6.9,0.0));
#92=DIRECTION('',(0.0,-1.0,0.0));
#93=DIRECTION('',(0.0,0.0,1.0));
#94=AXIS2_PLACEMENT_3D('',#91,#92,#93);
#95=CIRCLE('',#94,1.25);
#96=EDGE_CURVE('n° 164',#90,#90,#95,.T.);
#97=ORIENTED_EDGE('',*,*,#96,.T.);
#98=EDGE_LOOP('',(#97));
#99=FACE_OUTER_BOUND('',#98,.T.);
#100=ORIENTED_EDGE('',*,*,#34,.T.);
#101=EDGE_LOOP('',(#100));
#102=FACE_BOUND('',#101,.T.);
#103=CARTESIAN_POINT('',(0.0,7.1,0.0));
#104=DIRECTION('',(-0.0,-1.0,-0.0));
#105=DIRECTION('',(0.0,0.0,-1.0));
#106=AXIS2_PLACEMENT_3D('',#103,#104,#105);
#107=CYLINDRICAL_SURFACE('',#106,1.25);
#108=ADVANCED_FACE('n° 65',(#99,#102),#107,.T.);
#109=CARTESIAN_POINT('',(0.0,7.1,1.05));
#110=VERTEX_POINT('',#109);
#111=CARTESIAN_POINT('',(0.0,7.1,0.0));
#112=DIRECTION('',(0.0,1.0,0.0));
#113=DIRECTION('',(0.0,-0.0,1.0));
#114=AXIS2_PLACEMENT_3D('',#111,#112,#113);
#115=CIRCLE('',#114,1.05);
#116=EDGE_CURVE('n° 158',#110,#110,#115,.T.);
#117=ORIENTED_EDGE('',*,*,#116,.T.);
#118=EDGE_LOOP('',(#117));
#119=FACE_OUTER_BOUND('',#118,.T.);
#120=CARTESIAN_POINT('',(0.0,7.1,0.0));
#121=DIRECTION('',(0.0,1.0,0.0));
#122=DIRECTION('',(0.0,-0.0,1.0));
#123=AXIS2_PLACEMENT_3D('',#120,#121,#122);
#124=PLANE('',#123);
#125=ADVANCED_FACE('n° 70',(#119),#124,.T.);
#126=ORIENTED_EDGE('',*,*,#79,.F.);
#127=EDGE_LOOP('',(#126));
#128=FACE_OUTER_BOUND('',#127,.T.);
#129=ORIENTED_EDGE('',*,*,#51,.F.);
#130=EDGE_LOOP('',(#129));
#131=FACE_BOUND('',#130,.T.);
#132=CARTESIAN_POINT('',(0.0,0.1,0.0));
#133=DIRECTION('',(-0.0,1.0,-0.0));
#134=DIRECTION('',(0.0,0.0,1.0));
#135=AXIS2_PLACEMENT_3D('',#132,#133,#134);
#136=CONICAL_SURFACE('',#135,3.5,0.7853981634);
#137=ADVANCED_FACE('n° 126',(#128,#131),#136,.T.);
#138=ORIENTED_EDGE('',*,*,#62,.F.);
#139=EDGE_LOOP('',(#138));
#140=FACE_OUTER_BOUND('',#139,.T.);
#141=ORIENTED_EDGE('',*,*,#23,.F.);
#142=EDGE_LOOP('',(#141));
#143=FACE_BOUND('',#142,.T.);
#144=CARTESIAN_POINT('',(0.0,1.1,0.0));
#145=DIRECTION('',(0.0,-1.0,0.0));
#146=DIRECTION('',(0.0,-0.0,-1.0));
#147=AXIS2_PLACEMENT_3D('',#144,#145,#146);
#148=CONICAL_SURFACE('',#147,3.4,0.7853981634);
#149=ADVANCED_FACE('n° 139',(#140,#143),#148,.T.);
#150=ORIENTED_EDGE('',*,*,#96,.F.);
#151=EDGE_LOOP('',(#150));
#152=FACE_OUTER_BOUND('',#151,.T.);
#153=ORIENTED_EDGE('',*,*,#116,.F.);
#154=EDGE_LOOP('',(#153));
#155=FACE_BOUND('',#154,.T.);
#156=CARTESIAN_POINT('',(0.0,7.1,0.0));
#157=DIRECTION('',(0.0,-1.0,0.0));
#158=DIRECTION('',(0.0,-0.0,-1.0));
#159=AXIS2_PLACEMENT_3D('',#156,#157,#158);
#160=CONICAL_SURFACE('',#159,1.05,0.7853981634);
#161=ADVANCED_FACE('n° 176',(#152,#155),#160,.T.);
#162=CLOSED_SHELL('Fase2',(#43,#71,#88,#108,#125,#137,#149,#161));
#163=MANIFOLD_SOLID_BREP('Fase2',#162);
#164=COLOUR_RGB('',0.8,0.80784,0.8);
#165=FILL_AREA_STYLE_COLOUR('',#164);
#166=FILL_AREA_STYLE('',(#165));
#167=SURFACE_STYLE_FILL_AREA(#166);
#168=SURFACE_SIDE_STYLE('',(#167));
#169=SURFACE_STYLE_USAGE(.BOTH.,#168);
#170=PRESENTATION_STYLE_ASSIGNMENT((#169));
#171=STYLED_ITEM('',(#170),#163);
#172=CARTESIAN_POINT('Ursprung',(0.0,0.0,0.0));
#173=GEOMETRIC_CURVE_SET('Ursprung',(#172));
#174=CARTESIAN_POINT('',(0.,0.,0.));
#175=DIRECTION('',(0.,0.,1.));
#176=DIRECTION('',(1.,0.,0.));
#177=AXIS2_PLACEMENT_3D('Reference Axes',#174,#175,#176);
#178=ADVANCED_BREP_SHAPE_REPRESENTATION('',(#177,#163),#5);
#179=GEOMETRICALLY_BOUNDED_WIREFRAME_SHAPE_REPRESENTATION('',(#177,#173),#5);
#180=SHAPE_REPRESENTATION('',(#177),#5);
#181=SHAPE_REPRESENTATION_RELATIONSHIP('','',#178,#180);
#182=SHAPE_REPRESENTATION_RELATIONSHIP('','',#179,#180);
#183=SHAPE_DEFINITION_REPRESENTATION(#12,#180);
#184=MECHANICAL_DESIGN_GEOMETRIC_PRESENTATION_REPRESENTATION('',(#171),#5);
ENDSEC;
END-ISO-10303-21;
