ISO-10303-21;
HEADER;
/* Generated by software containing ST-Developer
 * from STEP Tools, Inc. (www.steptools.com) 
 */

FILE_DESCRIPTION(
/* description */ (''),
/* implementation_level */ '2;1');

FILE_NAME(
/* name */ '/Users/jharwinbarrozo/Downloads/Active Buzzer v1.step',
/* time_stamp */ '2022-06-10T05:54:24+08:00',
/* author */ (''),
/* organization */ (''),
/* preprocessor_version */ 'ST-DEVELOPER v18.1',
/* originating_system */ 'Autodesk Translation Framework v10.13.0.1454',

/* authorisation */ '');

FILE_SCHEMA (('AUTOMOTIVE_DESIGN { 1 0 10303 214 3 1 1 }'));
ENDSEC;

DATA;
#10=MECHANICAL_DESIGN_GEOMETRIC_PRESENTATION_REPRESENTATION('',(#120,#121,
#122,#123,#124,#125,#126,#127,#128,#129,#130,#131,#132,#133,#134,#135,#136,
#137,#138,#139,#140),#677);
#11=SHAPE_REPRESENTATION_RELATIONSHIP('SRR','None',#684,#12);
#12=ADVANCED_BREP_SHAPE_REPRESENTATION('',(#13),#676);
#13=MANIFOLD_SOLID_BREP('Body1',#425);
#14=CYLINDRICAL_SURFACE('',#458,0.750000000000001);
#15=FACE_BOUND('',#165,.T.);
#16=LINE('',#569,#68);
#17=LINE('',#571,#69);
#18=LINE('',#573,#70);
#19=LINE('',#574,#71);
#20=LINE('',#577,#72);
#21=LINE('',#579,#73);
#22=LINE('',#581,#74);
#23=LINE('',#582,#75);
#24=LINE('',#587,#76);
#25=LINE('',#589,#77);
#26=LINE('',#591,#78);
#27=LINE('',#593,#79);
#28=LINE('',#595,#80);
#29=LINE('',#596,#81);
#30=LINE('',#600,#82);
#31=LINE('',#602,#83);
#32=LINE('',#604,#84);
#33=LINE('',#605,#85);
#34=LINE('',#608,#86);
#35=LINE('',#610,#87);
#36=LINE('',#611,#88);
#37=LINE('',#614,#89);
#38=LINE('',#616,#90);
#39=LINE('',#618,#91);
#40=LINE('',#620,#92);
#41=LINE('',#622,#93);
#42=LINE('',#624,#94);
#43=LINE('',#625,#95);
#44=LINE('',#626,#96);
#45=LINE('',#627,#97);
#46=LINE('',#630,#98);
#47=LINE('',#632,#99);
#48=LINE('',#633,#100);
#49=LINE('',#637,#101);
#50=LINE('',#638,#102);
#51=LINE('',#639,#103);
#52=LINE('',#642,#104);
#53=LINE('',#644,#105);
#54=LINE('',#645,#106);
#55=LINE('',#648,#107);
#56=LINE('',#650,#108);
#57=LINE('',#651,#109);
#58=LINE('',#653,#110);
#59=LINE('',#654,#111);
#60=LINE('',#658,#112);
#61=LINE('',#659,#113);
#62=LINE('',#662,#114);
#63=LINE('',#663,#115);
#64=LINE('',#665,#116);
#65=LINE('',#668,#117);
#66=LINE('',#670,#118);
#67=LINE('',#672,#119);
#68=VECTOR('',#470,10.);
#69=VECTOR('',#471,10.);
#70=VECTOR('',#472,10.);
#71=VECTOR('',#473,10.);
#72=VECTOR('',#476,10.);
#73=VECTOR('',#477,10.);
#74=VECTOR('',#478,10.);
#75=VECTOR('',#479,10.);
#76=VECTOR('',#484,10.);
#77=VECTOR('',#485,10.);
#78=VECTOR('',#486,10.);
#79=VECTOR('',#487,10.);
#80=VECTOR('',#488,10.);
#81=VECTOR('',#489,10.);
#82=VECTOR('',#492,10.);
#83=VECTOR('',#493,10.);
#84=VECTOR('',#494,10.);
#85=VECTOR('',#495,10.);
#86=VECTOR('',#498,10.);
#87=VECTOR('',#499,10.);
#88=VECTOR('',#500,10.);
#89=VECTOR('',#503,10.);
#90=VECTOR('',#504,10.);
#91=VECTOR('',#505,10.);
#92=VECTOR('',#506,10.);
#93=VECTOR('',#507,10.);
#94=VECTOR('',#508,10.);
#95=VECTOR('',#509,10.);
#96=VECTOR('',#510,10.);
#97=VECTOR('',#511,10.);
#98=VECTOR('',#514,10.);
#99=VECTOR('',#515,10.);
#100=VECTOR('',#516,10.);
#101=VECTOR('',#519,10.);
#102=VECTOR('',#520,10.);
#103=VECTOR('',#521,10.);
#104=VECTOR('',#524,10.);
#105=VECTOR('',#525,10.);
#106=VECTOR('',#526,10.);
#107=VECTOR('',#529,10.);
#108=VECTOR('',#530,10.);
#109=VECTOR('',#531,10.);
#110=VECTOR('',#534,10.);
#111=VECTOR('',#535,10.);
#112=VECTOR('',#540,10.);
#113=VECTOR('',#541,10.);
#114=VECTOR('',#544,10.);
#115=VECTOR('',#545,10.);
#116=VECTOR('',#548,10.);
#117=VECTOR('',#553,0.750000000000001);
#118=VECTOR('',#556,10.);
#119=VECTOR('',#559,10.);
#120=STYLED_ITEM('',(#694),#405);
#121=STYLED_ITEM('',(#694),#406);
#122=STYLED_ITEM('',(#694),#407);
#123=STYLED_ITEM('',(#695),#408);
#124=STYLED_ITEM('',(#695),#409);
#125=STYLED_ITEM('',(#694),#410);
#126=STYLED_ITEM('',(#695),#411);
#127=STYLED_ITEM('',(#695),#412);
#128=STYLED_ITEM('',(#695),#413);
#129=STYLED_ITEM('',(#695),#414);
#130=STYLED_ITEM('',(#695),#415);
#131=STYLED_ITEM('',(#695),#416);
#132=STYLED_ITEM('',(#695),#417);
#133=STYLED_ITEM('',(#695),#418);
#134=STYLED_ITEM('',(#695),#419);
#135=STYLED_ITEM('',(#695),#420);
#136=STYLED_ITEM('',(#694),#421);
#137=STYLED_ITEM('',(#694),#422);
#138=STYLED_ITEM('',(#694),#423);
#139=STYLED_ITEM('',(#694),#424);
#140=STYLED_ITEM('',(#693),#13);
#141=FACE_OUTER_BOUND('',#162,.T.);
#142=FACE_OUTER_BOUND('',#163,.T.);
#143=FACE_OUTER_BOUND('',#164,.T.);
#144=FACE_OUTER_BOUND('',#166,.T.);
#145=FACE_OUTER_BOUND('',#167,.T.);
#146=FACE_OUTER_BOUND('',#168,.T.);
#147=FACE_OUTER_BOUND('',#169,.T.);
#148=FACE_OUTER_BOUND('',#170,.T.);
#149=FACE_OUTER_BOUND('',#171,.T.);
#150=FACE_OUTER_BOUND('',#172,.T.);
#151=FACE_OUTER_BOUND('',#173,.T.);
#152=FACE_OUTER_BOUND('',#174,.T.);
#153=FACE_OUTER_BOUND('',#175,.T.);
#154=FACE_OUTER_BOUND('',#176,.T.);
#155=FACE_OUTER_BOUND('',#177,.T.);
#156=FACE_OUTER_BOUND('',#178,.T.);
#157=FACE_OUTER_BOUND('',#179,.T.);
#158=FACE_OUTER_BOUND('',#180,.T.);
#159=FACE_OUTER_BOUND('',#181,.T.);
#160=FACE_OUTER_BOUND('',#182,.T.);
#161=FACE_OUTER_BOUND('',#183,.T.);
#162=EDGE_LOOP('',(#276));
#163=EDGE_LOOP('',(#277,#278,#279,#280));
#164=EDGE_LOOP('',(#281,#282,#283,#284,#285));
#165=EDGE_LOOP('',(#286));
#166=EDGE_LOOP('',(#287,#288,#289,#290,#291,#292,#293,#294));
#167=EDGE_LOOP('',(#295,#296,#297,#298));
#168=EDGE_LOOP('',(#299,#300,#301,#302));
#169=EDGE_LOOP('',(#303,#304,#305,#306,#307,#308,#309,#310,#311,#312,#313,
#314,#315));
#170=EDGE_LOOP('',(#316,#317,#318,#319));
#171=EDGE_LOOP('',(#320,#321,#322,#323));
#172=EDGE_LOOP('',(#324,#325,#326,#327,#328,#329));
#173=EDGE_LOOP('',(#330,#331,#332,#333));
#174=EDGE_LOOP('',(#334,#335,#336,#337,#338,#339));
#175=EDGE_LOOP('',(#340,#341,#342,#343));
#176=EDGE_LOOP('',(#344,#345,#346,#347,#348,#349));
#177=EDGE_LOOP('',(#350,#351,#352,#353));
#178=EDGE_LOOP('',(#354,#355,#356,#357,#358,#359));
#179=EDGE_LOOP('',(#360,#361,#362,#363));
#180=EDGE_LOOP('',(#364,#365,#366,#367));
#181=EDGE_LOOP('',(#368,#369,#370,#371));
#182=EDGE_LOOP('',(#372,#373,#374,#375));
#183=EDGE_LOOP('',(#376,#377,#378,#379,#380,#381,#382,#383));
#184=CIRCLE('',#440,0.750000000000001);
#185=CIRCLE('',#443,0.750000000000001);
#186=VERTEX_POINT('',#564);
#187=VERTEX_POINT('',#567);
#188=VERTEX_POINT('',#568);
#189=VERTEX_POINT('',#570);
#190=VERTEX_POINT('',#572);
#191=VERTEX_POINT('',#576);
#192=VERTEX_POINT('',#578);
#193=VERTEX_POINT('',#580);
#194=VERTEX_POINT('',#583);
#195=VERTEX_POINT('',#586);
#196=VERTEX_POINT('',#588);
#197=VERTEX_POINT('',#590);
#198=VERTEX_POINT('',#592);
#199=VERTEX_POINT('',#594);
#200=VERTEX_POINT('',#598);
#201=VERTEX_POINT('',#599);
#202=VERTEX_POINT('',#601);
#203=VERTEX_POINT('',#603);
#204=VERTEX_POINT('',#607);
#205=VERTEX_POINT('',#609);
#206=VERTEX_POINT('',#613);
#207=VERTEX_POINT('',#615);
#208=VERTEX_POINT('',#617);
#209=VERTEX_POINT('',#619);
#210=VERTEX_POINT('',#621);
#211=VERTEX_POINT('',#623);
#212=VERTEX_POINT('',#629);
#213=VERTEX_POINT('',#631);
#214=VERTEX_POINT('',#635);
#215=VERTEX_POINT('',#636);
#216=VERTEX_POINT('',#641);
#217=VERTEX_POINT('',#643);
#218=VERTEX_POINT('',#647);
#219=VERTEX_POINT('',#649);
#220=VERTEX_POINT('',#657);
#221=VERTEX_POINT('',#661);
#222=EDGE_CURVE('',#186,#186,#184,.T.);
#223=EDGE_CURVE('',#187,#188,#16,.T.);
#224=EDGE_CURVE('',#189,#187,#17,.T.);
#225=EDGE_CURVE('',#190,#189,#18,.T.);
#226=EDGE_CURVE('',#188,#190,#19,.T.);
#227=EDGE_CURVE('',#188,#191,#20,.T.);
#228=EDGE_CURVE('',#191,#192,#21,.T.);
#229=EDGE_CURVE('',#192,#193,#22,.T.);
#230=EDGE_CURVE('',#193,#187,#23,.T.);
#231=EDGE_CURVE('',#194,#194,#185,.T.);
#232=EDGE_CURVE('',#190,#195,#24,.T.);
#233=EDGE_CURVE('',#195,#196,#25,.T.);
#234=EDGE_CURVE('',#196,#197,#26,.T.);
#235=EDGE_CURVE('',#197,#198,#27,.T.);
#236=EDGE_CURVE('',#198,#199,#28,.T.);
#237=EDGE_CURVE('',#199,#191,#29,.T.);
#238=EDGE_CURVE('',#200,#201,#30,.T.);
#239=EDGE_CURVE('',#200,#202,#31,.T.);
#240=EDGE_CURVE('',#203,#202,#32,.T.);
#241=EDGE_CURVE('',#201,#203,#33,.T.);
#242=EDGE_CURVE('',#202,#204,#34,.T.);
#243=EDGE_CURVE('',#204,#205,#35,.T.);
#244=EDGE_CURVE('',#205,#203,#36,.T.);
#245=EDGE_CURVE('',#206,#189,#37,.T.);
#246=EDGE_CURVE('',#207,#206,#38,.T.);
#247=EDGE_CURVE('',#207,#208,#39,.T.);
#248=EDGE_CURVE('',#208,#209,#40,.T.);
#249=EDGE_CURVE('',#209,#210,#41,.T.);
#250=EDGE_CURVE('',#211,#210,#42,.T.);
#251=EDGE_CURVE('',#211,#199,#43,.T.);
#252=EDGE_CURVE('',#198,#200,#44,.T.);
#253=EDGE_CURVE('',#201,#195,#45,.T.);
#254=EDGE_CURVE('',#208,#212,#46,.T.);
#255=EDGE_CURVE('',#213,#212,#47,.T.);
#256=EDGE_CURVE('',#209,#213,#48,.T.);
#257=EDGE_CURVE('',#214,#215,#49,.T.);
#258=EDGE_CURVE('',#215,#213,#50,.T.);
#259=EDGE_CURVE('',#212,#214,#51,.T.);
#260=EDGE_CURVE('',#210,#216,#52,.T.);
#261=EDGE_CURVE('',#217,#215,#53,.T.);
#262=EDGE_CURVE('',#216,#217,#54,.T.);
#263=EDGE_CURVE('',#216,#218,#55,.T.);
#264=EDGE_CURVE('',#219,#217,#56,.T.);
#265=EDGE_CURVE('',#218,#219,#57,.T.);
#266=EDGE_CURVE('',#218,#207,#58,.T.);
#267=EDGE_CURVE('',#219,#214,#59,.T.);
#268=EDGE_CURVE('',#220,#205,#60,.T.);
#269=EDGE_CURVE('',#196,#220,#61,.T.);
#270=EDGE_CURVE('',#221,#220,#62,.T.);
#271=EDGE_CURVE('',#197,#221,#63,.T.);
#272=EDGE_CURVE('',#221,#204,#64,.T.);
#273=EDGE_CURVE('',#194,#186,#65,.T.);
#274=EDGE_CURVE('',#211,#192,#66,.T.);
#275=EDGE_CURVE('',#206,#193,#67,.T.);
#276=ORIENTED_EDGE('',*,*,#222,.F.);
#277=ORIENTED_EDGE('',*,*,#223,.F.);
#278=ORIENTED_EDGE('',*,*,#224,.F.);
#279=ORIENTED_EDGE('',*,*,#225,.F.);
#280=ORIENTED_EDGE('',*,*,#226,.F.);
#281=ORIENTED_EDGE('',*,*,#223,.T.);
#282=ORIENTED_EDGE('',*,*,#227,.T.);
#283=ORIENTED_EDGE('',*,*,#228,.T.);
#284=ORIENTED_EDGE('',*,*,#229,.T.);
#285=ORIENTED_EDGE('',*,*,#230,.T.);
#286=ORIENTED_EDGE('',*,*,#231,.T.);
#287=ORIENTED_EDGE('',*,*,#226,.T.);
#288=ORIENTED_EDGE('',*,*,#232,.T.);
#289=ORIENTED_EDGE('',*,*,#233,.T.);
#290=ORIENTED_EDGE('',*,*,#234,.T.);
#291=ORIENTED_EDGE('',*,*,#235,.T.);
#292=ORIENTED_EDGE('',*,*,#236,.T.);
#293=ORIENTED_EDGE('',*,*,#237,.T.);
#294=ORIENTED_EDGE('',*,*,#227,.F.);
#295=ORIENTED_EDGE('',*,*,#238,.F.);
#296=ORIENTED_EDGE('',*,*,#239,.T.);
#297=ORIENTED_EDGE('',*,*,#240,.F.);
#298=ORIENTED_EDGE('',*,*,#241,.F.);
#299=ORIENTED_EDGE('',*,*,#240,.T.);
#300=ORIENTED_EDGE('',*,*,#242,.T.);
#301=ORIENTED_EDGE('',*,*,#243,.T.);
#302=ORIENTED_EDGE('',*,*,#244,.T.);
#303=ORIENTED_EDGE('',*,*,#225,.T.);
#304=ORIENTED_EDGE('',*,*,#245,.F.);
#305=ORIENTED_EDGE('',*,*,#246,.F.);
#306=ORIENTED_EDGE('',*,*,#247,.T.);
#307=ORIENTED_EDGE('',*,*,#248,.T.);
#308=ORIENTED_EDGE('',*,*,#249,.T.);
#309=ORIENTED_EDGE('',*,*,#250,.F.);
#310=ORIENTED_EDGE('',*,*,#251,.T.);
#311=ORIENTED_EDGE('',*,*,#236,.F.);
#312=ORIENTED_EDGE('',*,*,#252,.T.);
#313=ORIENTED_EDGE('',*,*,#238,.T.);
#314=ORIENTED_EDGE('',*,*,#253,.T.);
#315=ORIENTED_EDGE('',*,*,#232,.F.);
#316=ORIENTED_EDGE('',*,*,#248,.F.);
#317=ORIENTED_EDGE('',*,*,#254,.T.);
#318=ORIENTED_EDGE('',*,*,#255,.F.);
#319=ORIENTED_EDGE('',*,*,#256,.F.);
#320=ORIENTED_EDGE('',*,*,#257,.T.);
#321=ORIENTED_EDGE('',*,*,#258,.T.);
#322=ORIENTED_EDGE('',*,*,#255,.T.);
#323=ORIENTED_EDGE('',*,*,#259,.T.);
#324=ORIENTED_EDGE('',*,*,#260,.F.);
#325=ORIENTED_EDGE('',*,*,#249,.F.);
#326=ORIENTED_EDGE('',*,*,#256,.T.);
#327=ORIENTED_EDGE('',*,*,#258,.F.);
#328=ORIENTED_EDGE('',*,*,#261,.F.);
#329=ORIENTED_EDGE('',*,*,#262,.F.);
#330=ORIENTED_EDGE('',*,*,#263,.F.);
#331=ORIENTED_EDGE('',*,*,#262,.T.);
#332=ORIENTED_EDGE('',*,*,#264,.F.);
#333=ORIENTED_EDGE('',*,*,#265,.F.);
#334=ORIENTED_EDGE('',*,*,#266,.F.);
#335=ORIENTED_EDGE('',*,*,#265,.T.);
#336=ORIENTED_EDGE('',*,*,#267,.T.);
#337=ORIENTED_EDGE('',*,*,#259,.F.);
#338=ORIENTED_EDGE('',*,*,#254,.F.);
#339=ORIENTED_EDGE('',*,*,#247,.F.);
#340=ORIENTED_EDGE('',*,*,#267,.F.);
#341=ORIENTED_EDGE('',*,*,#264,.T.);
#342=ORIENTED_EDGE('',*,*,#261,.T.);
#343=ORIENTED_EDGE('',*,*,#257,.F.);
#344=ORIENTED_EDGE('',*,*,#233,.F.);
#345=ORIENTED_EDGE('',*,*,#253,.F.);
#346=ORIENTED_EDGE('',*,*,#241,.T.);
#347=ORIENTED_EDGE('',*,*,#244,.F.);
#348=ORIENTED_EDGE('',*,*,#268,.F.);
#349=ORIENTED_EDGE('',*,*,#269,.F.);
#350=ORIENTED_EDGE('',*,*,#234,.F.);
#351=ORIENTED_EDGE('',*,*,#269,.T.);
#352=ORIENTED_EDGE('',*,*,#270,.F.);
#353=ORIENTED_EDGE('',*,*,#271,.F.);
#354=ORIENTED_EDGE('',*,*,#235,.F.);
#355=ORIENTED_EDGE('',*,*,#271,.T.);
#356=ORIENTED_EDGE('',*,*,#272,.T.);
#357=ORIENTED_EDGE('',*,*,#242,.F.);
#358=ORIENTED_EDGE('',*,*,#239,.F.);
#359=ORIENTED_EDGE('',*,*,#252,.F.);
#360=ORIENTED_EDGE('',*,*,#272,.F.);
#361=ORIENTED_EDGE('',*,*,#270,.T.);
#362=ORIENTED_EDGE('',*,*,#268,.T.);
#363=ORIENTED_EDGE('',*,*,#243,.F.);
#364=ORIENTED_EDGE('',*,*,#231,.F.);
#365=ORIENTED_EDGE('',*,*,#273,.T.);
#366=ORIENTED_EDGE('',*,*,#222,.T.);
#367=ORIENTED_EDGE('',*,*,#273,.F.);
#368=ORIENTED_EDGE('',*,*,#251,.F.);
#369=ORIENTED_EDGE('',*,*,#274,.T.);
#370=ORIENTED_EDGE('',*,*,#228,.F.);
#371=ORIENTED_EDGE('',*,*,#237,.F.);
#372=ORIENTED_EDGE('',*,*,#224,.T.);
#373=ORIENTED_EDGE('',*,*,#230,.F.);
#374=ORIENTED_EDGE('',*,*,#275,.F.);
#375=ORIENTED_EDGE('',*,*,#245,.T.);
#376=ORIENTED_EDGE('',*,*,#266,.T.);
#377=ORIENTED_EDGE('',*,*,#246,.T.);
#378=ORIENTED_EDGE('',*,*,#275,.T.);
#379=ORIENTED_EDGE('',*,*,#229,.F.);
#380=ORIENTED_EDGE('',*,*,#274,.F.);
#381=ORIENTED_EDGE('',*,*,#250,.T.);
#382=ORIENTED_EDGE('',*,*,#260,.T.);
#383=ORIENTED_EDGE('',*,*,#263,.T.);
#384=PLANE('',#439);
#385=PLANE('',#441);
#386=PLANE('',#442);
#387=PLANE('',#444);
#388=PLANE('',#445);
#389=PLANE('',#446);
#390=PLANE('',#447);
#391=PLANE('',#448);
#392=PLANE('',#449);
#393=PLANE('',#450);
#394=PLANE('',#451);
#395=PLANE('',#452);
#396=PLANE('',#453);
#397=PLANE('',#454);
#398=PLANE('',#455);
#399=PLANE('',#456);
#400=PLANE('',#457);
#401=PLANE('',#459);
#402=PLANE('',#460);
#403=PLANE('',#461);
#404=ADVANCED_FACE('',(#141),#384,.F.);
#405=ADVANCED_FACE('',(#142),#385,.F.);
#406=ADVANCED_FACE('',(#143,#15),#386,.T.);
#407=ADVANCED_FACE('',(#144),#387,.T.);
#408=ADVANCED_FACE('',(#145),#388,.T.);
#409=ADVANCED_FACE('',(#146),#389,.T.);
#410=ADVANCED_FACE('',(#147),#390,.F.);
#411=ADVANCED_FACE('',(#148),#391,.T.);
#412=ADVANCED_FACE('',(#149),#392,.T.);
#413=ADVANCED_FACE('',(#150),#393,.T.);
#414=ADVANCED_FACE('',(#151),#394,.T.);
#415=ADVANCED_FACE('',(#152),#395,.T.);
#416=ADVANCED_FACE('',(#153),#396,.T.);
#417=ADVANCED_FACE('',(#154),#397,.T.);
#418=ADVANCED_FACE('',(#155),#398,.T.);
#419=ADVANCED_FACE('',(#156),#399,.T.);
#420=ADVANCED_FACE('',(#157),#400,.T.);
#421=ADVANCED_FACE('',(#158),#14,.F.);
#422=ADVANCED_FACE('',(#159),#401,.T.);
#423=ADVANCED_FACE('',(#160),#402,.T.);
#424=ADVANCED_FACE('',(#161),#403,.T.);
#425=CLOSED_SHELL('',(#404,#405,#406,#407,#408,#409,#410,#411,#412,#413,
#414,#415,#416,#417,#418,#419,#420,#421,#422,#423,#424));
#426=DERIVED_UNIT_ELEMENT(#428,1.);
#427=DERIVED_UNIT_ELEMENT(#679,-3.);
#428=(
MASS_UNIT()
NAMED_UNIT(*)
SI_UNIT(.KILO.,.GRAM.)
);
#429=DERIVED_UNIT((#426,#427));
#430=MEASURE_REPRESENTATION_ITEM('density measure',
POSITIVE_RATIO_MEASURE(7850.),#429);
#431=PROPERTY_DEFINITION_REPRESENTATION(#436,#433);
#432=PROPERTY_DEFINITION_REPRESENTATION(#437,#434);
#433=REPRESENTATION('material name',(#435),#676);
#434=REPRESENTATION('density',(#430),#676);
#435=DESCRIPTIVE_REPRESENTATION_ITEM('Steel','Steel');
#436=PROPERTY_DEFINITION('material property','material name',#686);
#437=PROPERTY_DEFINITION('material property','density of part',#686);
#438=AXIS2_PLACEMENT_3D('placement',#562,#462,#463);
#439=AXIS2_PLACEMENT_3D('',#563,#464,#465);
#440=AXIS2_PLACEMENT_3D('',#565,#466,#467);
#441=AXIS2_PLACEMENT_3D('',#566,#468,#469);
#442=AXIS2_PLACEMENT_3D('',#575,#474,#475);
#443=AXIS2_PLACEMENT_3D('',#584,#480,#481);
#444=AXIS2_PLACEMENT_3D('',#585,#482,#483);
#445=AXIS2_PLACEMENT_3D('',#597,#490,#491);
#446=AXIS2_PLACEMENT_3D('',#606,#496,#497);
#447=AXIS2_PLACEMENT_3D('',#612,#501,#502);
#448=AXIS2_PLACEMENT_3D('',#628,#512,#513);
#449=AXIS2_PLACEMENT_3D('',#634,#517,#518);
#450=AXIS2_PLACEMENT_3D('',#640,#522,#523);
#451=AXIS2_PLACEMENT_3D('',#646,#527,#528);
#452=AXIS2_PLACEMENT_3D('',#652,#532,#533);
#453=AXIS2_PLACEMENT_3D('',#655,#536,#537);
#454=AXIS2_PLACEMENT_3D('',#656,#538,#539);
#455=AXIS2_PLACEMENT_3D('',#660,#542,#543);
#456=AXIS2_PLACEMENT_3D('',#664,#546,#547);
#457=AXIS2_PLACEMENT_3D('',#666,#549,#550);
#458=AXIS2_PLACEMENT_3D('',#667,#551,#552);
#459=AXIS2_PLACEMENT_3D('',#669,#554,#555);
#460=AXIS2_PLACEMENT_3D('',#671,#557,#558);
#461=AXIS2_PLACEMENT_3D('',#673,#560,#561);
#462=DIRECTION('axis',(0.,0.,1.));
#463=DIRECTION('refdir',(1.,0.,0.));
#464=DIRECTION('center_axis',(0.,0.,-1.));
#465=DIRECTION('ref_axis',(1.,0.,0.));
#466=DIRECTION('center_axis',(0.,0.,-1.));
#467=DIRECTION('ref_axis',(1.,0.,0.));
#468=DIRECTION('center_axis',(0.707106781186548,0.707106781186548,0.));
#469=DIRECTION('ref_axis',(-0.707106781186548,0.707106781186548,0.));
#470=DIRECTION('',(0.707106781186547,-0.707106781186547,0.));
#471=DIRECTION('',(0.,0.,1.));
#472=DIRECTION('',(-0.707106781186547,0.707106781186547,0.));
#473=DIRECTION('',(0.,0.,-1.));
#474=DIRECTION('center_axis',(0.,0.,1.));
#475=DIRECTION('ref_axis',(1.,0.,0.));
#476=DIRECTION('',(1.,0.,0.));
#477=DIRECTION('',(0.,1.,0.));
#478=DIRECTION('',(-1.,0.,0.));
#479=DIRECTION('',(0.,-1.,0.));
#480=DIRECTION('center_axis',(0.,0.,-1.));
#481=DIRECTION('ref_axis',(1.,0.,0.));
#482=DIRECTION('center_axis',(0.,-1.,0.));
#483=DIRECTION('ref_axis',(1.,0.,0.));
#484=DIRECTION('',(1.,0.,0.));
#485=DIRECTION('',(0.,0.,1.));
#486=DIRECTION('',(1.,0.,0.));
#487=DIRECTION('',(0.,0.,-1.));
#488=DIRECTION('',(1.,0.,0.));
#489=DIRECTION('',(0.,0.,1.));
#490=DIRECTION('center_axis',(0.,1.,0.));
#491=DIRECTION('ref_axis',(1.,0.,0.));
#492=DIRECTION('',(-1.,0.,0.));
#493=DIRECTION('',(0.,0.,-1.));
#494=DIRECTION('',(1.,0.,0.));
#495=DIRECTION('',(0.,0.,-1.));
#496=DIRECTION('center_axis',(0.,0.,-1.));
#497=DIRECTION('ref_axis',(-1.,0.,0.));
#498=DIRECTION('',(0.,-1.,0.));
#499=DIRECTION('',(-1.,0.,0.));
#500=DIRECTION('',(0.,1.,0.));
#501=DIRECTION('center_axis',(0.,0.,1.));
#502=DIRECTION('ref_axis',(1.,0.,0.));
#503=DIRECTION('',(0.,-1.,0.));
#504=DIRECTION('',(-1.,0.,0.));
#505=DIRECTION('',(0.,-1.,0.));
#506=DIRECTION('',(1.,0.,0.));
#507=DIRECTION('',(0.,1.,0.));
#508=DIRECTION('',(-1.,0.,0.));
#509=DIRECTION('',(0.,-1.,0.));
#510=DIRECTION('',(0.,1.,0.));
#511=DIRECTION('',(0.,-1.,0.));
#512=DIRECTION('center_axis',(0.,-1.,0.));
#513=DIRECTION('ref_axis',(-1.,0.,0.));
#514=DIRECTION('',(0.,0.,-1.));
#515=DIRECTION('',(-1.,0.,0.));
#516=DIRECTION('',(0.,0.,-1.));
#517=DIRECTION('center_axis',(0.,0.,-1.));
#518=DIRECTION('ref_axis',(-1.,0.,0.));
#519=DIRECTION('',(1.,0.,0.));
#520=DIRECTION('',(0.,-1.,0.));
#521=DIRECTION('',(0.,1.,0.));
#522=DIRECTION('center_axis',(1.,0.,0.));
#523=DIRECTION('ref_axis',(0.,0.,-1.));
#524=DIRECTION('',(0.,0.,1.));
#525=DIRECTION('',(0.,0.,-1.));
#526=DIRECTION('',(0.,1.,0.));
#527=DIRECTION('center_axis',(0.,0.,1.));
#528=DIRECTION('ref_axis',(1.,0.,0.));
#529=DIRECTION('',(-1.,0.,0.));
#530=DIRECTION('',(1.,0.,0.));
#531=DIRECTION('',(0.,1.,0.));
#532=DIRECTION('center_axis',(-1.,0.,0.));
#533=DIRECTION('ref_axis',(0.,0.,1.));
#534=DIRECTION('',(0.,0.,-1.));
#535=DIRECTION('',(0.,0.,-1.));
#536=DIRECTION('center_axis',(0.,1.,0.));
#537=DIRECTION('ref_axis',(0.,0.,1.));
#538=DIRECTION('center_axis',(-1.,0.,0.));
#539=DIRECTION('ref_axis',(0.,0.,-1.));
#540=DIRECTION('',(0.,0.,-1.));
#541=DIRECTION('',(0.,-1.,0.));
#542=DIRECTION('center_axis',(0.,0.,1.));
#543=DIRECTION('ref_axis',(-1.,0.,0.));
#544=DIRECTION('',(-1.,0.,0.));
#545=DIRECTION('',(0.,-1.,0.));
#546=DIRECTION('center_axis',(1.,0.,0.));
#547=DIRECTION('ref_axis',(0.,0.,1.));
#548=DIRECTION('',(0.,0.,-1.));
#549=DIRECTION('center_axis',(0.,-1.,0.));
#550=DIRECTION('ref_axis',(0.,0.,-1.));
#551=DIRECTION('center_axis',(0.,0.,1.));
#552=DIRECTION('ref_axis',(1.,0.,0.));
#553=DIRECTION('',(0.,0.,-1.));
#554=DIRECTION('center_axis',(1.,0.,0.));
#555=DIRECTION('ref_axis',(0.,1.,0.));
#556=DIRECTION('',(0.,0.,1.));
#557=DIRECTION('center_axis',(-1.,0.,0.));
#558=DIRECTION('ref_axis',(0.,-1.,0.));
#559=DIRECTION('',(0.,0.,1.));
#560=DIRECTION('center_axis',(0.,1.,0.));
#561=DIRECTION('ref_axis',(-1.,0.,0.));
#562=CARTESIAN_POINT('',(0.,0.,0.));
#563=CARTESIAN_POINT('Origin',(-0.0222846631296025,-0.0195719935238914,
3.5));
#564=CARTESIAN_POINT('',(-0.772284663129603,-0.0195719935238913,3.5));
#565=CARTESIAN_POINT('Origin',(-0.0222846631296025,-0.0195719935238914,
3.5));
#566=CARTESIAN_POINT('Origin',(-3.4,-6.4,0.5));
#567=CARTESIAN_POINT('',(-6.4,-3.4,7.));
#568=CARTESIAN_POINT('',(-3.4,-6.4,7.));
#569=CARTESIAN_POINT('',(-4.15,-5.65,7.));
#570=CARTESIAN_POINT('',(-6.4,-3.4,0.5));
#571=CARTESIAN_POINT('',(-6.4,-3.4,0.5));
#572=CARTESIAN_POINT('',(-3.4,-6.4,0.5));
#573=CARTESIAN_POINT('',(-4.15,-5.65,0.5));
#574=CARTESIAN_POINT('',(-3.4,-6.4,0.5));
#575=CARTESIAN_POINT('Origin',(0.,0.,7.));
#576=CARTESIAN_POINT('',(6.4,-6.4,7.));
#577=CARTESIAN_POINT('',(-6.4,-6.4,7.));
#578=CARTESIAN_POINT('',(6.4,6.4,7.));
#579=CARTESIAN_POINT('',(6.4,-3.39879216928136,7.));
#580=CARTESIAN_POINT('',(-6.4,6.4,7.));
#581=CARTESIAN_POINT('',(6.4,6.4,7.));
#582=CARTESIAN_POINT('',(-6.4,6.4,7.));
#583=CARTESIAN_POINT('',(-0.772284663129603,-0.0195719935238914,7.));
#584=CARTESIAN_POINT('Origin',(-0.0222846631296025,-0.0195719935238914,
7.));
#585=CARTESIAN_POINT('Origin',(-6.4,-6.4,0.5));
#586=CARTESIAN_POINT('',(-1.,-6.4,0.5));
#587=CARTESIAN_POINT('',(-6.4,-6.4,0.5));
#588=CARTESIAN_POINT('',(-1.,-6.4,3.5));
#589=CARTESIAN_POINT('',(-1.,-6.4,2.));
#590=CARTESIAN_POINT('',(1.,-6.4,3.5));
#591=CARTESIAN_POINT('',(-2.7,-6.4,3.5));
#592=CARTESIAN_POINT('',(1.,-6.4,0.5));
#593=CARTESIAN_POINT('',(1.,-6.4,0.5));
#594=CARTESIAN_POINT('',(6.4,-6.4,0.5));
#595=CARTESIAN_POINT('',(-6.4,-6.4,0.5));
#596=CARTESIAN_POINT('',(6.4,-6.4,0.5));
#597=CARTESIAN_POINT('Origin',(-1.,-3.9,0.5));
#598=CARTESIAN_POINT('',(1.,-3.9,0.5));
#599=CARTESIAN_POINT('',(-1.,-3.9,0.5));
#600=CARTESIAN_POINT('',(-0.5,-3.9,0.5));
#601=CARTESIAN_POINT('',(1.,-3.9,0.));
#602=CARTESIAN_POINT('',(1.,-3.9,0.5));
#603=CARTESIAN_POINT('',(-1.,-3.9,0.));
#604=CARTESIAN_POINT('',(1.,-3.9,0.));
#605=CARTESIAN_POINT('',(-1.,-3.9,0.5));
#606=CARTESIAN_POINT('Origin',(-1.38777878078145E-16,-5.4,0.));
#607=CARTESIAN_POINT('',(1.,-6.9,0.));
#608=CARTESIAN_POINT('',(1.,-6.9,0.));
#609=CARTESIAN_POINT('',(-1.,-6.9,0.));
#610=CARTESIAN_POINT('',(-1.,-6.9,0.));
#611=CARTESIAN_POINT('',(-1.,-3.9,0.));
#612=CARTESIAN_POINT('Origin',(0.,0.,0.5));
#613=CARTESIAN_POINT('',(-6.4,6.4,0.5));
#614=CARTESIAN_POINT('',(-6.4,6.4,0.5));
#615=CARTESIAN_POINT('',(-1.,6.4,0.5));
#616=CARTESIAN_POINT('',(6.4,6.4,0.5));
#617=CARTESIAN_POINT('',(-1.,3.9,0.5));
#618=CARTESIAN_POINT('',(-1.,1.95,0.5));
#619=CARTESIAN_POINT('',(1.,3.9,0.5));
#620=CARTESIAN_POINT('',(0.5,3.9,0.5));
#621=CARTESIAN_POINT('',(1.,6.4,0.5));
#622=CARTESIAN_POINT('',(1.,3.45,0.5));
#623=CARTESIAN_POINT('',(6.4,6.4,0.5));
#624=CARTESIAN_POINT('',(6.4,6.4,0.5));
#625=CARTESIAN_POINT('',(6.4,-3.39879216928136,0.5));
#626=CARTESIAN_POINT('',(1.,-1.95,0.5));
#627=CARTESIAN_POINT('',(-1.,-3.45,0.5));
#628=CARTESIAN_POINT('Origin',(1.,3.9,0.5));
#629=CARTESIAN_POINT('',(-1.,3.9,0.));
#630=CARTESIAN_POINT('',(-1.,3.9,0.5));
#631=CARTESIAN_POINT('',(1.,3.9,0.));
#632=CARTESIAN_POINT('',(-1.,3.9,0.));
#633=CARTESIAN_POINT('',(1.,3.9,0.5));
#634=CARTESIAN_POINT('Origin',(0.,5.4,0.));
#635=CARTESIAN_POINT('',(-1.,6.9,0.));
#636=CARTESIAN_POINT('',(1.,6.9,0.));
#637=CARTESIAN_POINT('',(-1.,6.9,0.));
#638=CARTESIAN_POINT('',(1.,6.9,0.));
#639=CARTESIAN_POINT('',(-1.,6.9,0.));
#640=CARTESIAN_POINT('Origin',(1.,6.4,3.5));
#641=CARTESIAN_POINT('',(1.,6.4,3.5));
#642=CARTESIAN_POINT('',(1.,6.4,2.));
#643=CARTESIAN_POINT('',(1.,6.9,3.5));
#644=CARTESIAN_POINT('',(1.,6.9,3.5));
#645=CARTESIAN_POINT('',(1.,6.4,3.5));
#646=CARTESIAN_POINT('Origin',(-1.,6.4,3.5));
#647=CARTESIAN_POINT('',(-1.,6.4,3.5));
#648=CARTESIAN_POINT('',(2.7,6.4,3.5));
#649=CARTESIAN_POINT('',(-1.,6.9,3.5));
#650=CARTESIAN_POINT('',(-1.,6.9,3.5));
#651=CARTESIAN_POINT('',(-1.,6.4,3.5));
#652=CARTESIAN_POINT('Origin',(-1.,6.4,0.5));
#653=CARTESIAN_POINT('',(-1.,6.4,0.5));
#654=CARTESIAN_POINT('',(-1.,6.9,0.5));
#655=CARTESIAN_POINT('Origin',(0.,6.9,2.));
#656=CARTESIAN_POINT('Origin',(-1.,-6.4,3.5));
#657=CARTESIAN_POINT('',(-1.,-6.9,3.5));
#658=CARTESIAN_POINT('',(-1.,-6.9,3.5));
#659=CARTESIAN_POINT('',(-1.,-6.4,3.5));
#660=CARTESIAN_POINT('Origin',(1.,-6.4,3.5));
#661=CARTESIAN_POINT('',(1.,-6.9,3.5));
#662=CARTESIAN_POINT('',(1.,-6.9,3.5));
#663=CARTESIAN_POINT('',(1.,-6.4,3.5));
#664=CARTESIAN_POINT('Origin',(1.,-6.4,0.5));
#665=CARTESIAN_POINT('',(1.,-6.9,0.5));
#666=CARTESIAN_POINT('Origin',(-1.38777878078145E-16,-6.9,2.));
#667=CARTESIAN_POINT('Origin',(-0.0222846631296025,-0.0195719935238914,
0.5));
#668=CARTESIAN_POINT('',(-0.772284663129603,-0.0195719935238915,0.5));
#669=CARTESIAN_POINT('Origin',(6.4,-3.39879216928136,0.5));
#670=CARTESIAN_POINT('',(6.4,6.4,0.5));
#671=CARTESIAN_POINT('Origin',(-6.4,6.4,0.5));
#672=CARTESIAN_POINT('',(-6.4,6.4,0.5));
#673=CARTESIAN_POINT('Origin',(6.4,6.4,0.5));
#674=UNCERTAINTY_MEASURE_WITH_UNIT(LENGTH_MEASURE(0.01),#678,
'DISTANCE_ACCURACY_VALUE',
'Maximum model space distance between geometric entities at asserted c
onnectivities');
#675=UNCERTAINTY_MEASURE_WITH_UNIT(LENGTH_MEASURE(0.01),#678,
'DISTANCE_ACCURACY_VALUE',
'Maximum model space distance between geometric entities at asserted c
onnectivities');
#676=(
GEOMETRIC_REPRESENTATION_CONTEXT(3)
GLOBAL_UNCERTAINTY_ASSIGNED_CONTEXT((#674))
GLOBAL_UNIT_ASSIGNED_CONTEXT((#678,#680,#681))
REPRESENTATION_CONTEXT('','3D')
);
#677=(
GEOMETRIC_REPRESENTATION_CONTEXT(3)
GLOBAL_UNCERTAINTY_ASSIGNED_CONTEXT((#675))
GLOBAL_UNIT_ASSIGNED_CONTEXT((#678,#680,#681))
REPRESENTATION_CONTEXT('','3D')
);
#678=(
LENGTH_UNIT()
NAMED_UNIT(*)
SI_UNIT(.MILLI.,.METRE.)
);
#679=(
LENGTH_UNIT()
NAMED_UNIT(*)
SI_UNIT($,.METRE.)
);
#680=(
NAMED_UNIT(*)
PLANE_ANGLE_UNIT()
SI_UNIT($,.RADIAN.)
);
#681=(
NAMED_UNIT(*)
SI_UNIT($,.STERADIAN.)
SOLID_ANGLE_UNIT()
);
#682=SHAPE_DEFINITION_REPRESENTATION(#683,#684);
#683=PRODUCT_DEFINITION_SHAPE('',$,#686);
#684=SHAPE_REPRESENTATION('',(#438),#676);
#685=PRODUCT_DEFINITION_CONTEXT('part definition',#690,'design');
#686=PRODUCT_DEFINITION('Active Buzzer','Active Buzzer v1',#687,#685);
#687=PRODUCT_DEFINITION_FORMATION('',$,#692);
#688=PRODUCT_RELATED_PRODUCT_CATEGORY('Active Buzzer v1',
'Active Buzzer v1',(#692));
#689=APPLICATION_PROTOCOL_DEFINITION('international standard',
'automotive_design',2009,#690);
#690=APPLICATION_CONTEXT(
'Core Data for Automotive Mechanical Design Process');
#691=PRODUCT_CONTEXT('part definition',#690,'mechanical');
#692=PRODUCT('Active Buzzer','Active Buzzer v1',$,(#691));
#693=PRESENTATION_STYLE_ASSIGNMENT((#696));
#694=PRESENTATION_STYLE_ASSIGNMENT((#697));
#695=PRESENTATION_STYLE_ASSIGNMENT((#698));
#696=SURFACE_STYLE_USAGE(.BOTH.,#699);
#697=SURFACE_STYLE_USAGE(.BOTH.,#700);
#698=SURFACE_STYLE_USAGE(.BOTH.,#701);
#699=SURFACE_SIDE_STYLE('',(#702));
#700=SURFACE_SIDE_STYLE('',(#703));
#701=SURFACE_SIDE_STYLE('',(#704));
#702=SURFACE_STYLE_FILL_AREA(#705);
#703=SURFACE_STYLE_FILL_AREA(#706);
#704=SURFACE_STYLE_FILL_AREA(#707);
#705=FILL_AREA_STYLE('Steel - Satin',(#708));
#706=FILL_AREA_STYLE('Aluminum nitride (AlN)',(#709));
#707=FILL_AREA_STYLE('Aluminum - Satin',(#710));
#708=FILL_AREA_STYLE_COLOUR('Steel - Satin',#711);
#709=FILL_AREA_STYLE_COLOUR('Aluminum nitride (AlN)',#712);
#710=FILL_AREA_STYLE_COLOUR('Aluminum - Satin',#713);
#711=COLOUR_RGB('Steel - Satin',0.627450980392157,0.627450980392157,0.627450980392157);
#712=COLOUR_RGB('Aluminum nitride (AlN)',0.850980392156863,0.827450980392157,
0.788235294117647);
#713=COLOUR_RGB('Aluminum - Satin',0.96078431372549,0.96078431372549,0.964705882352941);
ENDSEC;
END-ISO-10303-21;
