0
SECTION
2
HEADER
9
$INSUNITS
70
4
9
$ACADVER
1
AC1014
9
$HANDSEED
5
FFFF
0
ENDSEC
0
SECTION
2
TABLES
0
TABLE
2
VPORT
5
8
100
AcDbSymbolTable
0
ENDTAB
0
TABLE
2
LTYPE
5
5
100
AcDbSymbolTable
0
LTYPE
5
14
100
AcDbSymbolTableRecord
100
AcDbLinetypeTableRecord
2
BYBLOCK
70
0
0
LTYPE
5
15
100
AcDbSymbolTableRecord
100
AcDbLinetypeTableRecord
2
BYLAYER
70
0
0
LTYPE
5
16
100
AcDbSymbolTableRecord
100
AcDbLinetypeTableRecord
2
DASHED
70
0
3
Dashed __ __ __ __ __ __ __ __ __ __ __ __ __ _
72
65
73
2
40
0.75
49
0.5
74
0
49
-0.25
74
0
0
ENDTAB
0
TABLE
2
LAYER
5
2
100
AcDbSymbolTable
70
3
0
LAYER
5
50
100
AcDbSymbolTableRecord
100
AcDbLayerTableRecord
2
1
70
0
62
7
6
DASHED
0
LAYER
5
51
100
AcDbSymbolTableRecord
100
AcDbLayerTableRecord
2
0
70
0
62
7
6
CONTINUOUS
0
ENDTAB
0
TABLE
2
STYLE
5
3
100
AcDbSymbolTable
70
1
0
STYLE
5
11
100
AcDbSymbolTableRecord
100
AcDbTextStyleTableRecord
2
STANDARD
70
0
0
ENDTAB
0
TABLE
2
VIEW
5
6
100
AcDbSymbolTable
70
0
0
ENDTAB
0
TABLE
2
UCS
5
7
100
AcDbSymbolTable
70
0
0
ENDTAB
0
TABLE
2
APPID
5
9
100
AcDbSymbolTable
70
2
0
APPID
5
12
100
AcDbSymbolTableRecord
100
AcDbRegAppTableRecord
2
ACAD
70
0
0
ENDTAB
0
TABLE
2
DIMSTYLE
5
A
100
AcDbSymbolTable
70
1
0
ENDTAB
0
TABLE
2
BLOCK_RECORD
5
1
100
AcDbSymbolTable
70
1
0
BLOCK_RECORD
5
1F
100
AcDbSymbolTableRecord
100
AcDbBlockTableRecord
2
*MODEL_SPACE
0
BLOCK_RECORD
5
1B
100
AcDbSymbolTableRecord
100
AcDbBlockTableRecord
2
*PAPER_SPACE
0
ENDTAB
0
ENDSEC
0
SECTION
2
BLOCKS
0
BLOCK
5
20
100
AcDbEntity
100
AcDbBlockBegin
2
*MODEL_SPACE
0
ENDBLK
5
21
100
AcDbEntity
100
AcDbBlockEnd
0
BLOCK
5
1C
100
AcDbEntity
100
AcDbBlockBegin
2
*PAPER_SPACE
0
ENDBLK
5
1D
100
AcDbEntity
100
AcDbBlockEnd
0
ENDSEC
0
SECTION
2
ENTITIES
0
CIRCLE
5
100
100
AcDbEntity
8
0
100
AcDbCircle
10
-8.3599999999999994
20
-4.572000000000001
30
0
40
0.5
210
0
220
0
230
1
0
CIRCLE
5
101
100
AcDbEntity
8
0
100
AcDbCircle
10
-5.0800000000000001
20
-2.54
30
0
40
0.5
210
0
220
0
230
1
0
CIRCLE
5
102
100
AcDbEntity
8
0
100
AcDbCircle
10
-17.780000000000001
20
-2.54
30
0
40
0.5
210
0
220
0
230
1
0
CIRCLE
5
103
100
AcDbEntity
8
0
100
AcDbCircle
10
-12.699999999999999
20
-2.54
30
0
40
0.5
210
0
220
0
230
1
0
LWPOLYLINE
5
104
100
AcDbEntity
8
0
100
AcDbPolyline
90
4
70
1
43
0.0
10
-5.5400000000000036
20
-18.408000000000001
10
-5.5400000000000027
20
-17.308
42
0.99999999999999989
10
-6.1399999999999997
20
-17.308
10
-6.1400000000000006
20
-18.408000000000001
42
0.99999999999999989
0
LWPOLYLINE
5
105
100
AcDbEntity
8
0
100
AcDbPolyline
90
4
70
1
43
0.0
10
-14.779999999999999
20
-21.738
10
-14.779999999999999
20
-22.338000000000001
42
0.99999999999999989
10
-14.180000000000001
20
-22.338000000000001
10
-14.180000000000001
20
-21.738
42
0.99999999999999989
0
CIRCLE
5
106
100
AcDbEntity
8
0
100
AcDbCircle
10
-7.2699999999999996
20
-18.358000000000001
30
0
40
0.32500000000000001
210
0
220
0
230
1
0
CIRCLE
5
107
100
AcDbEntity
8
0
100
AcDbCircle
10
-17.652999999999999
20
-20.954999999999998
30
0
40
1.25
210
0
220
0
230
1
0
CIRCLE
5
108
100
AcDbEntity
8
0
100
AcDbCircle
10
-4.0640000000000001
20
-14.468
30
0
40
0.19700000000000001
210
0
220
0
230
1
0
CIRCLE
5
109
100
AcDbEntity
8
0
100
AcDbCircle
10
-12.636000000000001
20
-15.811999999999999
30
0
40
0.250000000000001
210
0
220
0
230
1
0
CIRCLE
5
110
100
AcDbEntity
8
0
100
AcDbCircle
10
-10.614000000000001
20
-15.675000000000001
30
0
40
0.19699999999999801
210
0
220
0
230
1
0
CIRCLE
5
111
100
AcDbEntity
8
0
100
AcDbCircle
10
-11.115000000000002
20
-18.669000000000004
30
0
40
0.19700000000000104
210
0
220
0
230
1
0
CIRCLE
5
112
100
AcDbEntity
8
0
100
AcDbCircle
10
-8.8439999999999994
20
-19.382999999999999
30
0
40
0.19999999999999904
210
0
220
0
230
1
0
CIRCLE
5
113
100
AcDbEntity
8
0
100
AcDbCircle
10
-7.6200000000000001
20
-22.162000000000003
30
0
40
0.249999999999999
210
0
220
0
230
1
0
CIRCLE
5
114
100
AcDbEntity
8
0
100
AcDbCircle
10
-0.95200000000000007
20
-5.4610000000000003
30
0
40
0.25
210
0
220
0
230
1
0
CIRCLE
5
115
100
AcDbEntity
8
0
100
AcDbCircle
10
-0.95200000000000007
20
-9.7160000000000011
30
0
40
0.25
210
0
220
0
230
1
0
CIRCLE
5
116
100
AcDbEntity
8
0
100
AcDbCircle
10
-17.969999999999999
20
-17.652999999999999
30
0
40
0.249999999999999
210
0
220
0
230
1
0
CIRCLE
5
117
100
AcDbEntity
8
0
100
AcDbCircle
10
-13.970000000000002
20
-13.970000000000002
30
0
40
0.250000000000001
210
0
220
0
230
1
0
CIRCLE
5
118
100
AcDbEntity
8
0
100
AcDbCircle
10
-13.272000000000002
20
-11.683999999999999
30
0
40
0.250000000000001
210
0
220
0
230
1
0
CIRCLE
5
119
100
AcDbEntity
8
0
100
AcDbCircle
10
-9.7789999999999999
20
-8.2550000000000008
30
0
40
0.249999999999999
210
0
220
0
230
1
0
CIRCLE
5
120
100
AcDbEntity
8
0
100
AcDbCircle
10
-6.4770000000000003
20
-13.462
30
0
40
0.25
210
0
220
0
230
1
0
CIRCLE
5
121
100
AcDbEntity
8
0
100
AcDbCircle
10
-13.462
20
-9.3339999999999996
30
0
40
0.249999999999999
210
0
220
0
230
1
0
CIRCLE
5
122
100
AcDbEntity
8
0
100
AcDbCircle
10
-0.82600000000000007
20
-7.4930000000000003
30
0
40
0.25
210
0
220
0
230
1
0
CIRCLE
5
123
100
AcDbEntity
8
0
100
AcDbCircle
10
-6.7940000000000005
20
-15.747999999999999
30
0
40
0.25
210
0
220
0
230
1
0
CIRCLE
5
124
100
AcDbEntity
8
0
100
AcDbCircle
10
-12.954000000000001
20
-22.352000000000004
30
0
40
0.249999999999999
210
0
220
0
230
1
0
CIRCLE
5
125
100
AcDbEntity
8
0
100
AcDbCircle
10
-9.7050000000000001
20
-18.795999999999999
30
0
40
0.19699999999999901
210
0
220
0
230
1
0
CIRCLE
5
126
100
AcDbEntity
8
0
100
AcDbCircle
10
-8.5040000000000013
20
-15.597000000000001
30
0
40
0.19699999999999901
210
0
220
0
230
1
0
CIRCLE
5
127
100
AcDbEntity
8
0
100
AcDbCircle
10
-13.715999999999999
20
-6.2230000000000008
30
0
40
0.19999999999999801
210
0
220
0
230
1
0
CIRCLE
5
128
100
AcDbEntity
8
0
100
AcDbCircle
10
-4.0640000000000001
20
-13.462
30
0
40
0.20000000000000004
210
0
220
0
230
1
0
CIRCLE
5
129
100
AcDbEntity
8
0
100
AcDbCircle
10
-5.2700000000000005
20
-15.430000000000001
30
0
40
0.19700000000000104
210
0
220
0
230
1
0
CIRCLE
5
130
100
AcDbEntity
8
0
100
AcDbCircle
10
-2.4129999999999998
20
-20.954999999999998
30
0
40
1.25
210
0
220
0
230
1
0
CIRCLE
5
131
100
AcDbEntity
8
0
100
AcDbCircle
10
-13.050000000000001
20
-18.358000000000001
30
0
40
0.32500000000000001
210
0
220
0
230
1
0
LWPOLYLINE
5
132
100
AcDbEntity
8
0
100
AcDbPolyline
90
4
70
1
43
0.0
10
-14.180000000000001
20
-18.408000000000001
10
-14.180000000000001
20
-17.308
42
0.99999999999999989
10
-14.779999999999999
20
-17.308
10
-14.780000000000001
20
-18.408000000000001
42
0.99999999999999989
0
LWPOLYLINE
5
133
100
AcDbEntity
8
0
100
AcDbPolyline
90
4
70
1
43
0.0
10
-5.5400000000000009
20
-22.338000000000001
10
-5.5400000000000009
20
-21.738
42
0.99999999999999989
10
-6.1399999999999997
20
-21.738
10
-6.1399999999999997
20
-22.338000000000001
42
0.99999999999999989
0
CIRCLE
5
134
100
AcDbEntity
8
0
100
AcDbCircle
10
-15.24
20
-2.54
30
0
40
0.5
210
0
220
0
230
1
0
CIRCLE
5
135
100
AcDbEntity
8
0
100
AcDbCircle
10
-7.6200000000000001
20
-2.54
30
0
40
0.5
210
0
220
0
230
1
0
CIRCLE
5
136
100
AcDbEntity
8
0
100
AcDbCircle
10
-2.54
20
-2.54
30
0
40
0.5
210
0
220
0
230
1
0
CIRCLE
5
137
100
AcDbEntity
8
0
100
AcDbCircle
10
-11.859999999999999
20
-4.572000000000001
30
0
40
0.5
210
0
220
0
230
1
0
LWPOLYLINE
5
138
100
AcDbEntity
8
0
100
AcDbPolyline
90
8
70
1
43
0.0
10
-17.780000000000001
20
0
10
-2.54
20
0
42
-0.41421356237309509
10
1.2131842169368411e-31
20
-2.54
10
0
20
-20.954999999999998
42
-0.41421356237309509
10
-2.54
20
-23.494999999999997
10
-17.780000000000001
20
-23.494999999999997
42
-0.41421356237309509
10
-20.32
20
-20.954999999999998
10
-20.32
20
-2.54
42
-0.41421356237309509
0
LWPOLYLINE
5
139
100
AcDbEntity
8
0
100
AcDbPolyline
90
82
70
1
43
0.0
10
-11.559999999999999
20
-17.308
10
-11.559999999999999
20
-16.707999999999998
10
-11.259999999999998
20
-16.707999999999998
10
-11.259999999999998
20
-17.308
10
-11.059999999999999
20
-17.308
10
-11.059999999999999
20
-16.707999999999998
10
-10.759999999999998
20
-16.707999999999998
10
-10.759999999999998
20
-17.308
10
-10.56
20
-17.308
10
-10.56
20
-16.707999999999998
10
-10.259999999999998
20
-16.707999999999998
10
-10.259999999999998
20
-17.308
10
-10.06
20
-17.308
10
-10.06
20
-16.707999999999998
10
-9.759999999999998
20
-16.707999999999998
10
-9.759999999999998
20
-17.308
10
-9.5599999999999987
20
-17.308
10
-9.5599999999999987
20
-16.707999999999998
10
-9.2599999999999998
20
-16.708000000000002
10
-9.2599999999999998
20
-17.308
10
-9.0599999999999987
20
-17.308
10
-9.0599999999999987
20
-16.707999999999998
10
-8.759999999999998
20
-16.708000000000002
10
-8.759999999999998
20
-17.308
10
-8.5599999999999987
20
-17.308
10
-8.5599999999999987
20
-16.707999999999998
10
-8.259999999999998
20
-16.708000000000002
10
-8.259999999999998
20
-17.308
10
-8.0099999999999998
20
-17.308
10
-8.0099999999999998
20
-16.707999999999998
10
-7.4099999999999984
20
-16.708000000000002
10
-7.4099999999999984
20
-17.308
10
-7.2099999999999991
20
-17.308
10
-7.2099999999999991
20
-16.708000000000002
10
-6.6099999999999994
20
-16.708000000000002
10
-6.6100000000000003
20
-17.308
10
-6.0899999999999999
20
-17.308
10
-5.9900000000000002
20
-17.308
10
-5.6899999999999995
20
-17.308
10
-5.6899999999999995
20
-17.608000000000001
10
-5.6899999999999995
20
-18.058
10
-5.6899999999999995
20
-18.358000000000004
10
-5.6899999999999995
20
-18.658000000000005
10
-5.6900000000000004
20
-20.758000000000003
10
-5.6900000000000004
20
-21.008000000000003
10
-5.6900000000000004
20
-21.308000000000003
10
-5.6900000000000004
20
-21.608000000000001
10
-5.6900000000000013
20
-21.908000000000001
10
-5.6900000000000013
20
-22.108000000000004
10
-5.6900000000000013
20
-22.408000000000001
10
-5.6900000000000004
20
-22.658000000000001
10
-5.6900000000000013
20
-24.607999999999997
10
-6.9400000000000013
20
-24.608000000000004
10
-13.380000000000003
20
-24.607999999999997
10
-14.630000000000001
20
-24.607999999999997
10
-14.630000000000001
20
-22.658000000000001
10
-14.630000000000001
20
-22.407999999999998
10
-14.630000000000001
20
-22.107999999999997
10
-14.630000000000001
20
-21.907999999999998
10
-14.630000000000001
20
-21.607999999999997
10
-14.630000000000001
20
-21.308
10
-14.630000000000001
20
-21.007999999999999
10
-14.630000000000001
20
-20.757999999999996
10
-14.630000000000001
20
-18.657999999999998
10
-14.630000000000001
20
-18.357999999999997
10
-14.630000000000001
20
-18.058
10
-14.630000000000001
20
-17.607999999999997
10
-14.630000000000001
20
-17.307999999999996
10
-14.33
20
-17.308
10
-14.23
20
-17.308
10
-13.710000000000001
20
-17.308
10
-13.710000000000001
20
-16.707999999999998
10
-13.109999999999999
20
-16.707999999999998
10
-13.109999999999999
20
-17.308
10
-12.91
20
-17.308
10
-12.91
20
-16.707999999999998
10
-12.309999999999999
20
-16.707999999999998
10
-12.309999999999999
20
-17.308
10
-12.059999999999999
20
-17.308
10
-12.059999999999999
20
-16.707999999999998
10
-11.76
20
-16.707999999999998
10
-11.76
20
-17.308
0
ENDSEC
0
SECTION
2
OBJECTS
0
DICTIONARY
5
C
100
AcDbDictionary
3
ACAD_GROUP
350
D
3
ACAD_MLINESTYLE
350
17
0
DICTIONARY
5
D
100
AcDbDictionary
0
DICTIONARY
5
1A
330
C
100
AcDbDictionary
0
DICTIONARY
5
17
100
AcDbDictionary
0
ENDSEC
0
EOF
