ISO-10303-21;
HEADER;
/* Generated by software containing ST-Developer
 * from STEP Tools, Inc. (www.steptools.com) 
 */

FILE_DESCRIPTION(
/* description */ (''),
/* implementation_level */ '2;1');

FILE_NAME(
/* name */ '/Users/jharwinbarrozo/Downloads/AAA battery v1.step',
/* time_stamp */ '2022-06-14T04:38:40+08:00',
/* author */ (''),
/* organization */ (''),
/* preprocessor_version */ 'ST-DEVELOPER v19',
/* originating_system */ 'Autodesk Translation Framework v11.7.0.108',
/* authorisation */ '');

FILE_SCHEMA (('AUTOMOTIVE_DESIGN { 1 0 10303 214 3 1 1 }'));
ENDSEC;

DATA;
#10=MECHANICAL_DESIGN_GEOMETRIC_PRESENTATION_REPRESENTATION('',(#13),#428);
#11=SHAPE_REPRESENTATION_RELATIONSHIP('SRR','None',#435,#12);
#12=ADVANCED_BREP_SHAPE_REPRESENTATION('',(#14),#427);
#13=STYLED_ITEM('',(#444),#14);
#14=MANIFOLD_SOLID_BREP('Body1',#256);
#15=CYLINDRICAL_SURFACE('',#281,5.37100044544916);
#16=CYLINDRICAL_SURFACE('',#285,5.19594933902173);
#17=CIRCLE('',#276,5.19594933902173);
#18=CIRCLE('',#277,5.37100044544916);
#19=CIRCLE('',#279,5.19594933902173);
#20=CIRCLE('',#280,5.37100044544916);
#21=FACE_BOUND('',#39,.T.);
#22=FACE_OUTER_BOUND('',#36,.T.);
#23=FACE_OUTER_BOUND('',#37,.T.);
#24=FACE_OUTER_BOUND('',#38,.T.);
#25=FACE_OUTER_BOUND('',#40,.T.);
#26=FACE_OUTER_BOUND('',#41,.T.);
#27=FACE_OUTER_BOUND('',#42,.T.);
#28=FACE_OUTER_BOUND('',#43,.T.);
#29=FACE_OUTER_BOUND('',#44,.T.);
#30=FACE_OUTER_BOUND('',#45,.T.);
#31=FACE_OUTER_BOUND('',#46,.T.);
#32=FACE_OUTER_BOUND('',#47,.T.);
#33=FACE_OUTER_BOUND('',#48,.T.);
#34=FACE_OUTER_BOUND('',#49,.T.);
#35=FACE_OUTER_BOUND('',#50,.T.);
#36=EDGE_LOOP('',(#164,#165,#166,#167));
#37=EDGE_LOOP('',(#168,#169,#170,#171));
#38=EDGE_LOOP('',(#172,#173,#174,#175));
#39=EDGE_LOOP('',(#176,#177,#178,#179));
#40=EDGE_LOOP('',(#180,#181,#182,#183));
#41=EDGE_LOOP('',(#184,#185,#186,#187));
#42=EDGE_LOOP('',(#188,#189,#190,#191,#192,#193,#194));
#43=EDGE_LOOP('',(#195,#196,#197,#198,#199,#200,#201));
#44=EDGE_LOOP('',(#202,#203,#204,#205));
#45=EDGE_LOOP('',(#206,#207,#208,#209));
#46=EDGE_LOOP('',(#210,#211,#212,#213));
#47=EDGE_LOOP('',(#214,#215,#216,#217));
#48=EDGE_LOOP('',(#218,#219,#220,#221));
#49=EDGE_LOOP('',(#222,#223,#224,#225));
#50=EDGE_LOOP('',(#226,#227,#228,#229));
#51=LINE('',#359,#80);
#52=LINE('',#361,#81);
#53=LINE('',#363,#82);
#54=LINE('',#364,#83);
#55=LINE('',#367,#84);
#56=LINE('',#369,#85);
#57=LINE('',#370,#86);
#58=LINE('',#374,#87);
#59=LINE('',#376,#88);
#60=LINE('',#378,#89);
#61=LINE('',#379,#90);
#62=LINE('',#381,#91);
#63=LINE('',#383,#92);
#64=LINE('',#384,#93);
#65=LINE('',#388,#94);
#66=LINE('',#390,#95);
#67=LINE('',#392,#96);
#68=LINE('',#393,#97);
#69=LINE('',#395,#98);
#70=LINE('',#396,#99);
#71=LINE('',#406,#100);
#72=LINE('',#409,#101);
#73=LINE('',#411,#102);
#74=LINE('',#412,#103);
#75=LINE('',#415,#104);
#76=LINE('',#416,#105);
#77=LINE('',#419,#106);
#78=LINE('',#420,#107);
#79=LINE('',#423,#108);
#80=VECTOR('',#292,10.);
#81=VECTOR('',#293,10.);
#82=VECTOR('',#294,10.);
#83=VECTOR('',#295,10.);
#84=VECTOR('',#298,10.);
#85=VECTOR('',#299,10.);
#86=VECTOR('',#300,10.);
#87=VECTOR('',#303,10.);
#88=VECTOR('',#304,10.);
#89=VECTOR('',#305,10.);
#90=VECTOR('',#306,10.);
#91=VECTOR('',#307,10.);
#92=VECTOR('',#308,10.);
#93=VECTOR('',#309,10.);
#94=VECTOR('',#312,10.);
#95=VECTOR('',#313,10.);
#96=VECTOR('',#314,10.);
#97=VECTOR('',#315,10.);
#98=VECTOR('',#318,10.);
#99=VECTOR('',#319,10.);
#100=VECTOR('',#334,10.);
#101=VECTOR('',#337,10.);
#102=VECTOR('',#338,10.);
#103=VECTOR('',#339,10.);
#104=VECTOR('',#342,10.);
#105=VECTOR('',#343,10.);
#106=VECTOR('',#346,10.);
#107=VECTOR('',#347,10.);
#108=VECTOR('',#352,10.);
#109=VERTEX_POINT('',#357);
#110=VERTEX_POINT('',#358);
#111=VERTEX_POINT('',#360);
#112=VERTEX_POINT('',#362);
#113=VERTEX_POINT('',#366);
#114=VERTEX_POINT('',#368);
#115=VERTEX_POINT('',#372);
#116=VERTEX_POINT('',#373);
#117=VERTEX_POINT('',#375);
#118=VERTEX_POINT('',#377);
#119=VERTEX_POINT('',#380);
#120=VERTEX_POINT('',#382);
#121=VERTEX_POINT('',#386);
#122=VERTEX_POINT('',#387);
#123=VERTEX_POINT('',#389);
#124=VERTEX_POINT('',#391);
#125=VERTEX_POINT('',#398);
#126=VERTEX_POINT('',#402);
#127=VERTEX_POINT('',#408);
#128=VERTEX_POINT('',#410);
#129=VERTEX_POINT('',#414);
#130=VERTEX_POINT('',#418);
#131=EDGE_CURVE('',#109,#110,#51,.T.);
#132=EDGE_CURVE('',#109,#111,#52,.T.);
#133=EDGE_CURVE('',#111,#112,#53,.T.);
#134=EDGE_CURVE('',#110,#112,#54,.T.);
#135=EDGE_CURVE('',#113,#111,#55,.T.);
#136=EDGE_CURVE('',#114,#113,#56,.T.);
#137=EDGE_CURVE('',#112,#114,#57,.T.);
#138=EDGE_CURVE('',#115,#116,#58,.T.);
#139=EDGE_CURVE('',#116,#117,#59,.T.);
#140=EDGE_CURVE('',#117,#118,#60,.T.);
#141=EDGE_CURVE('',#118,#115,#61,.T.);
#142=EDGE_CURVE('',#119,#114,#62,.T.);
#143=EDGE_CURVE('',#113,#120,#63,.T.);
#144=EDGE_CURVE('',#120,#119,#64,.T.);
#145=EDGE_CURVE('',#121,#122,#65,.T.);
#146=EDGE_CURVE('',#121,#123,#66,.T.);
#147=EDGE_CURVE('',#123,#124,#67,.T.);
#148=EDGE_CURVE('',#122,#124,#68,.T.);
#149=EDGE_CURVE('',#119,#123,#69,.T.);
#150=EDGE_CURVE('',#124,#120,#70,.T.);
#151=EDGE_CURVE('',#122,#125,#17,.T.);
#152=EDGE_CURVE('',#125,#109,#18,.T.);
#153=EDGE_CURVE('',#126,#121,#19,.T.);
#154=EDGE_CURVE('',#110,#126,#20,.T.);
#155=EDGE_CURVE('',#125,#126,#71,.T.);
#156=EDGE_CURVE('',#127,#116,#72,.T.);
#157=EDGE_CURVE('',#127,#128,#73,.T.);
#158=EDGE_CURVE('',#128,#117,#74,.T.);
#159=EDGE_CURVE('',#129,#115,#75,.T.);
#160=EDGE_CURVE('',#129,#127,#76,.T.);
#161=EDGE_CURVE('',#128,#130,#77,.T.);
#162=EDGE_CURVE('',#130,#118,#78,.T.);
#163=EDGE_CURVE('',#130,#129,#79,.T.);
#164=ORIENTED_EDGE('',*,*,#131,.F.);
#165=ORIENTED_EDGE('',*,*,#132,.T.);
#166=ORIENTED_EDGE('',*,*,#133,.T.);
#167=ORIENTED_EDGE('',*,*,#134,.F.);
#168=ORIENTED_EDGE('',*,*,#133,.F.);
#169=ORIENTED_EDGE('',*,*,#135,.F.);
#170=ORIENTED_EDGE('',*,*,#136,.F.);
#171=ORIENTED_EDGE('',*,*,#137,.F.);
#172=ORIENTED_EDGE('',*,*,#138,.T.);
#173=ORIENTED_EDGE('',*,*,#139,.T.);
#174=ORIENTED_EDGE('',*,*,#140,.T.);
#175=ORIENTED_EDGE('',*,*,#141,.T.);
#176=ORIENTED_EDGE('',*,*,#142,.T.);
#177=ORIENTED_EDGE('',*,*,#136,.T.);
#178=ORIENTED_EDGE('',*,*,#143,.T.);
#179=ORIENTED_EDGE('',*,*,#144,.T.);
#180=ORIENTED_EDGE('',*,*,#145,.F.);
#181=ORIENTED_EDGE('',*,*,#146,.T.);
#182=ORIENTED_EDGE('',*,*,#147,.T.);
#183=ORIENTED_EDGE('',*,*,#148,.F.);
#184=ORIENTED_EDGE('',*,*,#147,.F.);
#185=ORIENTED_EDGE('',*,*,#149,.F.);
#186=ORIENTED_EDGE('',*,*,#144,.F.);
#187=ORIENTED_EDGE('',*,*,#150,.F.);
#188=ORIENTED_EDGE('',*,*,#151,.F.);
#189=ORIENTED_EDGE('',*,*,#148,.T.);
#190=ORIENTED_EDGE('',*,*,#150,.T.);
#191=ORIENTED_EDGE('',*,*,#143,.F.);
#192=ORIENTED_EDGE('',*,*,#135,.T.);
#193=ORIENTED_EDGE('',*,*,#132,.F.);
#194=ORIENTED_EDGE('',*,*,#152,.F.);
#195=ORIENTED_EDGE('',*,*,#153,.F.);
#196=ORIENTED_EDGE('',*,*,#154,.F.);
#197=ORIENTED_EDGE('',*,*,#134,.T.);
#198=ORIENTED_EDGE('',*,*,#137,.T.);
#199=ORIENTED_EDGE('',*,*,#142,.F.);
#200=ORIENTED_EDGE('',*,*,#149,.T.);
#201=ORIENTED_EDGE('',*,*,#146,.F.);
#202=ORIENTED_EDGE('',*,*,#131,.T.);
#203=ORIENTED_EDGE('',*,*,#154,.T.);
#204=ORIENTED_EDGE('',*,*,#155,.F.);
#205=ORIENTED_EDGE('',*,*,#152,.T.);
#206=ORIENTED_EDGE('',*,*,#156,.F.);
#207=ORIENTED_EDGE('',*,*,#157,.T.);
#208=ORIENTED_EDGE('',*,*,#158,.T.);
#209=ORIENTED_EDGE('',*,*,#139,.F.);
#210=ORIENTED_EDGE('',*,*,#159,.F.);
#211=ORIENTED_EDGE('',*,*,#160,.T.);
#212=ORIENTED_EDGE('',*,*,#156,.T.);
#213=ORIENTED_EDGE('',*,*,#138,.F.);
#214=ORIENTED_EDGE('',*,*,#158,.F.);
#215=ORIENTED_EDGE('',*,*,#161,.T.);
#216=ORIENTED_EDGE('',*,*,#162,.T.);
#217=ORIENTED_EDGE('',*,*,#140,.F.);
#218=ORIENTED_EDGE('',*,*,#155,.T.);
#219=ORIENTED_EDGE('',*,*,#153,.T.);
#220=ORIENTED_EDGE('',*,*,#145,.T.);
#221=ORIENTED_EDGE('',*,*,#151,.T.);
#222=ORIENTED_EDGE('',*,*,#162,.F.);
#223=ORIENTED_EDGE('',*,*,#163,.T.);
#224=ORIENTED_EDGE('',*,*,#159,.T.);
#225=ORIENTED_EDGE('',*,*,#141,.F.);
#226=ORIENTED_EDGE('',*,*,#161,.F.);
#227=ORIENTED_EDGE('',*,*,#157,.F.);
#228=ORIENTED_EDGE('',*,*,#160,.F.);
#229=ORIENTED_EDGE('',*,*,#163,.F.);
#230=PLANE('',#270);
#231=PLANE('',#271);
#232=PLANE('',#272);
#233=PLANE('',#273);
#234=PLANE('',#274);
#235=PLANE('',#275);
#236=PLANE('',#278);
#237=PLANE('',#282);
#238=PLANE('',#283);
#239=PLANE('',#284);
#240=PLANE('',#286);
#241=PLANE('',#287);
#242=ADVANCED_FACE('',(#22),#230,.F.);
#243=ADVANCED_FACE('',(#23),#231,.F.);
#244=ADVANCED_FACE('',(#24,#21),#232,.T.);
#245=ADVANCED_FACE('',(#25),#233,.F.);
#246=ADVANCED_FACE('',(#26),#234,.F.);
#247=ADVANCED_FACE('',(#27),#235,.T.);
#248=ADVANCED_FACE('',(#28),#236,.T.);
#249=ADVANCED_FACE('',(#29),#15,.F.);
#250=ADVANCED_FACE('',(#30),#237,.T.);
#251=ADVANCED_FACE('',(#31),#238,.T.);
#252=ADVANCED_FACE('',(#32),#239,.T.);
#253=ADVANCED_FACE('',(#33),#16,.F.);
#254=ADVANCED_FACE('',(#34),#240,.T.);
#255=ADVANCED_FACE('',(#35),#241,.F.);
#256=CLOSED_SHELL('',(#242,#243,#244,#245,#246,#247,#248,#249,#250,#251,
#252,#253,#254,#255));
#257=DERIVED_UNIT_ELEMENT(#259,1.);
#258=DERIVED_UNIT_ELEMENT(#430,-3.);
#259=(
MASS_UNIT()
NAMED_UNIT(*)
SI_UNIT(.KILO.,.GRAM.)
);
#260=DERIVED_UNIT((#257,#258));
#261=MEASURE_REPRESENTATION_ITEM('density measure',
POSITIVE_RATIO_MEASURE(7850.),#260);
#262=PROPERTY_DEFINITION_REPRESENTATION(#267,#264);
#263=PROPERTY_DEFINITION_REPRESENTATION(#268,#265);
#264=REPRESENTATION('material name',(#266),#427);
#265=REPRESENTATION('density',(#261),#427);
#266=DESCRIPTIVE_REPRESENTATION_ITEM('Steel','Steel');
#267=PROPERTY_DEFINITION('material property','material name',#437);
#268=PROPERTY_DEFINITION('material property','density of part',#437);
#269=AXIS2_PLACEMENT_3D('placement',#355,#288,#289);
#270=AXIS2_PLACEMENT_3D('',#356,#290,#291);
#271=AXIS2_PLACEMENT_3D('',#365,#296,#297);
#272=AXIS2_PLACEMENT_3D('',#371,#301,#302);
#273=AXIS2_PLACEMENT_3D('',#385,#310,#311);
#274=AXIS2_PLACEMENT_3D('',#394,#316,#317);
#275=AXIS2_PLACEMENT_3D('',#397,#320,#321);
#276=AXIS2_PLACEMENT_3D('',#399,#322,#323);
#277=AXIS2_PLACEMENT_3D('',#400,#324,#325);
#278=AXIS2_PLACEMENT_3D('',#401,#326,#327);
#279=AXIS2_PLACEMENT_3D('',#403,#328,#329);
#280=AXIS2_PLACEMENT_3D('',#404,#330,#331);
#281=AXIS2_PLACEMENT_3D('',#405,#332,#333);
#282=AXIS2_PLACEMENT_3D('',#407,#335,#336);
#283=AXIS2_PLACEMENT_3D('',#413,#340,#341);
#284=AXIS2_PLACEMENT_3D('',#417,#344,#345);
#285=AXIS2_PLACEMENT_3D('',#421,#348,#349);
#286=AXIS2_PLACEMENT_3D('',#422,#350,#351);
#287=AXIS2_PLACEMENT_3D('',#424,#353,#354);
#288=DIRECTION('axis',(0.,0.,1.));
#289=DIRECTION('refdir',(1.,0.,0.));
#290=DIRECTION('center_axis',(0.,0.,-1.));
#291=DIRECTION('ref_axis',(-1.,0.,0.));
#292=DIRECTION('',(-1.,0.,0.));
#293=DIRECTION('',(0.,1.,0.));
#294=DIRECTION('',(-1.,0.,0.));
#295=DIRECTION('',(0.,1.,0.));
#296=DIRECTION('center_axis',(0.,1.,0.));
#297=DIRECTION('ref_axis',(0.,0.,1.));
#298=DIRECTION('',(0.,0.,-1.));
#299=DIRECTION('',(1.,0.,0.));
#300=DIRECTION('',(0.,0.,1.));
#301=DIRECTION('center_axis',(0.,0.,1.));
#302=DIRECTION('ref_axis',(1.,0.,0.));
#303=DIRECTION('',(0.,-1.,0.));
#304=DIRECTION('',(1.,0.,0.));
#305=DIRECTION('',(0.,1.,0.));
#306=DIRECTION('',(-1.,0.,0.));
#307=DIRECTION('',(0.,1.,0.));
#308=DIRECTION('',(0.,-1.,0.));
#309=DIRECTION('',(-1.,0.,0.));
#310=DIRECTION('center_axis',(0.,0.,-1.));
#311=DIRECTION('ref_axis',(1.,0.,0.));
#312=DIRECTION('',(1.,0.,0.));
#313=DIRECTION('',(0.,-1.,0.));
#314=DIRECTION('',(1.,0.,0.));
#315=DIRECTION('',(0.,-1.,0.));
#316=DIRECTION('center_axis',(0.,-1.,0.));
#317=DIRECTION('ref_axis',(0.,0.,-1.));
#318=DIRECTION('',(0.,0.,-1.));
#319=DIRECTION('',(0.,0.,1.));
#320=DIRECTION('center_axis',(-1.,0.,0.));
#321=DIRECTION('ref_axis',(0.,1.,0.));
#322=DIRECTION('center_axis',(1.,0.,0.));
#323=DIRECTION('ref_axis',(0.,1.,0.));
#324=DIRECTION('center_axis',(1.,0.,0.));
#325=DIRECTION('ref_axis',(0.,1.,0.));
#326=DIRECTION('center_axis',(1.,0.,0.));
#327=DIRECTION('ref_axis',(0.,-1.,0.));
#328=DIRECTION('center_axis',(-1.,0.,0.));
#329=DIRECTION('ref_axis',(0.,1.,0.));
#330=DIRECTION('center_axis',(-1.,0.,0.));
#331=DIRECTION('ref_axis',(0.,1.,0.));
#332=DIRECTION('center_axis',(-1.,0.,0.));
#333=DIRECTION('ref_axis',(0.,1.,0.));
#334=DIRECTION('',(-1.,0.,0.));
#335=DIRECTION('center_axis',(0.,-1.,0.));
#336=DIRECTION('ref_axis',(1.,0.,0.));
#337=DIRECTION('',(0.,0.,1.));
#338=DIRECTION('',(1.,0.,0.));
#339=DIRECTION('',(0.,0.,1.));
#340=DIRECTION('center_axis',(-1.,0.,0.));
#341=DIRECTION('ref_axis',(0.,-1.,0.));
#342=DIRECTION('',(0.,0.,1.));
#343=DIRECTION('',(0.,-1.,0.));
#344=DIRECTION('center_axis',(1.,0.,0.));
#345=DIRECTION('ref_axis',(0.,1.,0.));
#346=DIRECTION('',(0.,1.,0.));
#347=DIRECTION('',(0.,0.,1.));
#348=DIRECTION('center_axis',(-1.,0.,0.));
#349=DIRECTION('ref_axis',(0.,1.,0.));
#350=DIRECTION('center_axis',(0.,1.,0.));
#351=DIRECTION('ref_axis',(-1.,0.,0.));
#352=DIRECTION('',(-1.,0.,0.));
#353=DIRECTION('center_axis',(0.,0.,1.));
#354=DIRECTION('ref_axis',(1.,0.,0.));
#355=CARTESIAN_POINT('',(0.,0.,0.));
#356=CARTESIAN_POINT('Origin',(26.2818244729599,8.64077998831007,2.44571687914952));
#357=CARTESIAN_POINT('',(26.2818244729599,8.64077998831007,2.44571687914952));
#358=CARTESIAN_POINT('',(-26.2670640150521,8.64077998831007,2.44571687914952));
#359=CARTESIAN_POINT('',(-24.9160640150521,8.64077998831007,2.44571687914952));
#360=CARTESIAN_POINT('',(26.2818244729599,10.2477799883101,2.44571687914952));
#361=CARTESIAN_POINT('',(26.2818244729599,8.64077998831007,2.44571687914952));
#362=CARTESIAN_POINT('',(-26.2670640150521,10.2477799883101,2.44571687914952));
#363=CARTESIAN_POINT('',(-24.9160640150521,10.2477799883101,2.44571687914952));
#364=CARTESIAN_POINT('',(-26.2670640150521,8.64077998831007,2.44571687914952));
#365=CARTESIAN_POINT('Origin',(24.7758244729599,10.2477799883101,11.3));
#366=CARTESIAN_POINT('',(26.2818244729599,10.2477799883101,11.3));
#367=CARTESIAN_POINT('',(26.2818244729599,10.2477799883101,11.3));
#368=CARTESIAN_POINT('',(-26.2670640150521,10.2477799883101,11.3));
#369=CARTESIAN_POINT('',(12.3879122364799,10.2477799883101,11.3));
#370=CARTESIAN_POINT('',(-26.2670640150521,10.2477799883101,11.3));
#371=CARTESIAN_POINT('Origin',(0.,0.,11.3));
#372=CARTESIAN_POINT('',(-27.25,11.2,11.3));
#373=CARTESIAN_POINT('',(-27.25,-11.2,11.3));
#374=CARTESIAN_POINT('',(-27.25,11.2,11.3));
#375=CARTESIAN_POINT('',(27.25,-11.2,11.3));
#376=CARTESIAN_POINT('',(-27.25,-11.2,11.3));
#377=CARTESIAN_POINT('',(27.25,11.2,11.3));
#378=CARTESIAN_POINT('',(27.25,-11.2,11.3));
#379=CARTESIAN_POINT('',(27.25,11.2,11.3));
#380=CARTESIAN_POINT('',(-26.2670640150521,-10.2694305178608,11.3));
#381=CARTESIAN_POINT('',(-26.2670640150521,4.32038999415504,11.3));
#382=CARTESIAN_POINT('',(26.2818244729599,-10.2694305178608,11.3));
#383=CARTESIAN_POINT('',(26.2818244729599,4.32038999415504,11.3));
#384=CARTESIAN_POINT('',(-12.4580320075261,-10.2694305178608,11.3));
#385=CARTESIAN_POINT('Origin',(-26.2670640150521,-8.95843051786083,2.61332350342847));
#386=CARTESIAN_POINT('',(-26.2670640150521,-8.95843051786083,2.61332350342847));
#387=CARTESIAN_POINT('',(26.2818244729599,-8.95843051786083,2.61332350342847));
#388=CARTESIAN_POINT('',(24.7758244729599,-8.95843051786083,2.61332350342847));
#389=CARTESIAN_POINT('',(-26.2670640150521,-10.2694305178608,2.61332350342847));
#390=CARTESIAN_POINT('',(-26.2670640150521,-8.95843051786083,2.61332350342847));
#391=CARTESIAN_POINT('',(26.2818244729599,-10.2694305178608,2.61332350342847));
#392=CARTESIAN_POINT('',(24.7758244729599,-10.2694305178608,2.61332350342847));
#393=CARTESIAN_POINT('',(26.2818244729599,-8.95843051786083,2.61332350342847));
#394=CARTESIAN_POINT('Origin',(-24.9160640150521,-10.2694305178608,11.3));
#395=CARTESIAN_POINT('',(-26.2670640150521,-10.2694305178608,11.3));
#396=CARTESIAN_POINT('',(26.2818244729599,-10.2694305178608,11.3));
#397=CARTESIAN_POINT('Origin',(26.2818244729599,-8.95843051786083,11.3));
#398=CARTESIAN_POINT('',(26.2818244729599,-0.135287837203295,4.48071695337254));
#399=CARTESIAN_POINT('Origin',(26.2818244729599,-5.08138548167523,6.07257361307202));
#400=CARTESIAN_POINT('Origin',(26.2818244729599,4.9135387594945,6.31292758031806));
#401=CARTESIAN_POINT('Origin',(-26.2670640150521,8.64077998831007,11.3));
#402=CARTESIAN_POINT('',(-26.2670640150521,-0.135287837203295,4.48071695337254));
#403=CARTESIAN_POINT('Origin',(-26.2670640150521,-5.08138548167523,6.07257361307202));
#404=CARTESIAN_POINT('Origin',(-26.2670640150521,4.9135387594945,6.31292758031806));
#405=CARTESIAN_POINT('Origin',(27.25,4.9135387594945,6.31292758031806));
#406=CARTESIAN_POINT('',(27.25,-0.135287837203295,4.48071695337254));
#407=CARTESIAN_POINT('Origin',(-27.25,-11.2,0.));
#408=CARTESIAN_POINT('',(-27.25,-11.2,0.));
#409=CARTESIAN_POINT('',(-27.25,-11.2,0.));
#410=CARTESIAN_POINT('',(27.25,-11.2,0.));
#411=CARTESIAN_POINT('',(-27.25,-11.2,0.));
#412=CARTESIAN_POINT('',(27.25,-11.2,0.));
#413=CARTESIAN_POINT('Origin',(-27.25,11.2,0.));
#414=CARTESIAN_POINT('',(-27.25,11.2,0.));
#415=CARTESIAN_POINT('',(-27.25,11.2,0.));
#416=CARTESIAN_POINT('',(-27.25,11.2,0.));
#417=CARTESIAN_POINT('Origin',(27.25,-11.2,0.));
#418=CARTESIAN_POINT('',(27.25,11.2,0.));
#419=CARTESIAN_POINT('',(27.25,-11.2,0.));
#420=CARTESIAN_POINT('',(27.25,11.2,0.));
#421=CARTESIAN_POINT('Origin',(27.25,-5.08138548167523,6.07257361307202));
#422=CARTESIAN_POINT('Origin',(27.25,11.2,0.));
#423=CARTESIAN_POINT('',(27.25,11.2,0.));
#424=CARTESIAN_POINT('Origin',(0.,0.,0.));
#425=UNCERTAINTY_MEASURE_WITH_UNIT(LENGTH_MEASURE(0.01),#429,
'DISTANCE_ACCURACY_VALUE',
'Maximum model space distance between geometric entities at asserted c
onnectivities');
#426=UNCERTAINTY_MEASURE_WITH_UNIT(LENGTH_MEASURE(0.01),#429,
'DISTANCE_ACCURACY_VALUE',
'Maximum model space distance between geometric entities at asserted c
onnectivities');
#427=(
GEOMETRIC_REPRESENTATION_CONTEXT(3)
GLOBAL_UNCERTAINTY_ASSIGNED_CONTEXT((#425))
GLOBAL_UNIT_ASSIGNED_CONTEXT((#429,#431,#432))
REPRESENTATION_CONTEXT('','3D')
);
#428=(
GEOMETRIC_REPRESENTATION_CONTEXT(3)
GLOBAL_UNCERTAINTY_ASSIGNED_CONTEXT((#426))
GLOBAL_UNIT_ASSIGNED_CONTEXT((#429,#431,#432))
REPRESENTATION_CONTEXT('','3D')
);
#429=(
LENGTH_UNIT()
NAMED_UNIT(*)
SI_UNIT(.MILLI.,.METRE.)
);
#430=(
LENGTH_UNIT()
NAMED_UNIT(*)
SI_UNIT($,.METRE.)
);
#431=(
NAMED_UNIT(*)
PLANE_ANGLE_UNIT()
SI_UNIT($,.RADIAN.)
);
#432=(
NAMED_UNIT(*)
SI_UNIT($,.STERADIAN.)
SOLID_ANGLE_UNIT()
);
#433=SHAPE_DEFINITION_REPRESENTATION(#434,#435);
#434=PRODUCT_DEFINITION_SHAPE('',$,#437);
#435=SHAPE_REPRESENTATION('',(#269),#427);
#436=PRODUCT_DEFINITION_CONTEXT('part definition',#441,'design');
#437=PRODUCT_DEFINITION('AAA battery','AAA battery v1',#438,#436);
#438=PRODUCT_DEFINITION_FORMATION('',$,#443);
#439=PRODUCT_RELATED_PRODUCT_CATEGORY('AAA battery v1','AAA battery v1',
(#443));
#440=APPLICATION_PROTOCOL_DEFINITION('international standard',
'automotive_design',2009,#441);
#441=APPLICATION_CONTEXT(
'Core Data for Automotive Mechanical Design Process');
#442=PRODUCT_CONTEXT('part definition',#441,'mechanical');
#443=PRODUCT('AAA battery','AAA battery v1',$,(#442));
#444=PRESENTATION_STYLE_ASSIGNMENT((#445));
#445=SURFACE_STYLE_USAGE(.BOTH.,#446);
#446=SURFACE_SIDE_STYLE('',(#447));
#447=SURFACE_STYLE_FILL_AREA(#448);
#448=FILL_AREA_STYLE(
'PA 12 - Nylon - PA 603-CF (with EOS P 3D Printers)',(#449));
#449=FILL_AREA_STYLE_COLOUR(
'PA 12 - Nylon - PA 603-CF (with EOS P 3D Printers)',#450);
#450=COLOUR_RGB('PA 12 - Nylon - PA 603-CF (with EOS P 3D Printers)',0.247058823529412,
0.247058823529412,0.247058823529412);
ENDSEC;
END-ISO-10303-21;
