ISO-10303-21;
HEADER;
/* Generated by software containing ST-Developer
 * from STEP Tools, Inc. (www.steptools.com) 
 */
/* OPTION: using custom renumber hook */

FILE_DESCRIPTION(
/* description */ ('STEP AP242',
'CAx-IF Rec.Pracs.---Representation and Presentation of Product Manufa
cturing Information (PMI)---4.0---2014-10-13',
'CAx-IF Rec.Pracs.---3D Tessellated Geometry---0.4---2014-09-14','2;1'),

/* implementation_level */ '2;1');

FILE_NAME(
/* name */ '637e9962c556cd2dd640daa6',
/* time_stamp */ '2022-11-23T22:06:27+00:00',
/* author */ (''),
/* organization */ (''),
/* preprocessor_version */ 'ST-DEVELOPER v18.102',
/* originating_system */ '  ',
/* authorisation */ '  ');

FILE_SCHEMA (('AP242_MANAGED_MODEL_BASED_3D_ENGINEERING_MIM_LF { 1 0 10303 442 1 1 4 }'));
ENDSEC;

DATA;
#10=COLOUR_RGB('',0.647058823529412,0.647058823529412,0.647058823529412);
#11=SHAPE_REPRESENTATION_RELATIONSHIP('','',#142,#14);
#12=SHAPE_REPRESENTATION_RELATIONSHIP('','',#143,#15);
#13=SHAPE_REPRESENTATION_RELATIONSHIP('','',#144,#16);
#14=ADVANCED_BREP_SHAPE_REPRESENTATION('',(#136),#244);
#15=ADVANCED_BREP_SHAPE_REPRESENTATION('',(#137),#245);
#16=ADVANCED_BREP_SHAPE_REPRESENTATION('',(#138),#246);
#17=TOROIDAL_SURFACE('',#153,0.0024,0.00075);
#18=TOROIDAL_SURFACE('',#154,0.0029,0.00025);
#19=PLANE('',#149);
#20=PLANE('',#151);
#21=PLANE('',#159);
#22=PLANE('',#160);
#23=PLANE('',#165);
#24=PLANE('',#166);
#25=ORIENTED_EDGE('',*,*,#41,.T.);
#26=ORIENTED_EDGE('',*,*,#42,.T.);
#27=ORIENTED_EDGE('',*,*,#43,.T.);
#28=ORIENTED_EDGE('',*,*,#44,.T.);
#29=ORIENTED_EDGE('',*,*,#42,.F.);
#30=ORIENTED_EDGE('',*,*,#43,.F.);
#31=ORIENTED_EDGE('',*,*,#44,.F.);
#32=ORIENTED_EDGE('',*,*,#41,.F.);
#33=ORIENTED_EDGE('',*,*,#45,.T.);
#34=ORIENTED_EDGE('',*,*,#46,.F.);
#35=ORIENTED_EDGE('',*,*,#45,.F.);
#36=ORIENTED_EDGE('',*,*,#46,.T.);
#37=ORIENTED_EDGE('',*,*,#47,.T.);
#38=ORIENTED_EDGE('',*,*,#48,.F.);
#39=ORIENTED_EDGE('',*,*,#47,.F.);
#40=ORIENTED_EDGE('',*,*,#48,.T.);
#41=EDGE_CURVE('',#49,#49,#57,.T.);
#42=EDGE_CURVE('',#50,#50,#58,.F.);
#43=EDGE_CURVE('',#51,#51,#59,.T.);
#44=EDGE_CURVE('',#52,#52,#60,.F.);
#45=EDGE_CURVE('',#53,#53,#61,.T.);
#46=EDGE_CURVE('',#54,#54,#62,.T.);
#47=EDGE_CURVE('',#55,#55,#63,.T.);
#48=EDGE_CURVE('',#56,#56,#64,.T.);
#49=VERTEX_POINT('',#214);
#50=VERTEX_POINT('',#216);
#51=VERTEX_POINT('',#219);
#52=VERTEX_POINT('',#222);
#53=VERTEX_POINT('',#228);
#54=VERTEX_POINT('',#230);
#55=VERTEX_POINT('',#236);
#56=VERTEX_POINT('',#238);
#57=CIRCLE('',#147,0.00315);
#58=CIRCLE('',#148,0.00315);
#59=CIRCLE('',#150,0.0024);
#60=CIRCLE('',#152,0.0029);
#61=CIRCLE('',#157,0.0004);
#62=CIRCLE('',#158,0.0004);
#63=CIRCLE('',#163,0.0004);
#64=CIRCLE('',#164,0.0004);
#65=EDGE_LOOP('',(#25));
#66=EDGE_LOOP('',(#26));
#67=EDGE_LOOP('',(#27));
#68=EDGE_LOOP('',(#28));
#69=EDGE_LOOP('',(#29));
#70=EDGE_LOOP('',(#30));
#71=EDGE_LOOP('',(#31));
#72=EDGE_LOOP('',(#32));
#73=EDGE_LOOP('',(#33));
#74=EDGE_LOOP('',(#34));
#75=EDGE_LOOP('',(#35));
#76=EDGE_LOOP('',(#36));
#77=EDGE_LOOP('',(#37));
#78=EDGE_LOOP('',(#38));
#79=EDGE_LOOP('',(#39));
#80=EDGE_LOOP('',(#40));
#81=FACE_BOUND('',#65,.T.);
#82=FACE_BOUND('',#66,.T.);
#83=FACE_BOUND('',#67,.T.);
#84=FACE_BOUND('',#68,.T.);
#85=FACE_BOUND('',#69,.T.);
#86=FACE_BOUND('',#70,.T.);
#87=FACE_BOUND('',#71,.T.);
#88=FACE_BOUND('',#72,.T.);
#89=FACE_BOUND('',#73,.T.);
#90=FACE_BOUND('',#74,.T.);
#91=FACE_BOUND('',#75,.T.);
#92=FACE_BOUND('',#76,.T.);
#93=FACE_BOUND('',#77,.T.);
#94=FACE_BOUND('',#78,.T.);
#95=FACE_BOUND('',#79,.T.);
#96=FACE_BOUND('',#80,.T.);
#97=CYLINDRICAL_SURFACE('',#146,0.00315);
#98=CYLINDRICAL_SURFACE('',#156,0.0004);
#99=CYLINDRICAL_SURFACE('',#162,0.0004);
#100=ADVANCED_FACE('',(#81,#82),#97,.T.);
#101=ADVANCED_FACE('',(#83),#19,.T.);
#102=ADVANCED_FACE('',(#84),#20,.F.);
#103=ADVANCED_FACE('',(#85,#86),#17,.T.);
#104=ADVANCED_FACE('',(#87,#88),#18,.T.);
#105=ADVANCED_FACE('',(#89,#90),#98,.T.);
#106=ADVANCED_FACE('',(#91),#21,.F.);
#107=ADVANCED_FACE('',(#92),#22,.T.);
#108=ADVANCED_FACE('',(#93,#94),#99,.T.);
#109=ADVANCED_FACE('',(#95),#23,.F.);
#110=ADVANCED_FACE('',(#96),#24,.T.);
#111=CLOSED_SHELL('',(#100,#101,#102,#103,#104));
#112=CLOSED_SHELL('',(#105,#106,#107));
#113=CLOSED_SHELL('',(#108,#109,#110));
#114=STYLED_ITEM('',(#117),#136);
#115=STYLED_ITEM('',(#118),#137);
#116=STYLED_ITEM('',(#119),#138);
#117=PRESENTATION_STYLE_ASSIGNMENT((#120));
#118=PRESENTATION_STYLE_ASSIGNMENT((#121));
#119=PRESENTATION_STYLE_ASSIGNMENT((#122));
#120=SURFACE_STYLE_USAGE(.BOTH.,#123);
#121=SURFACE_STYLE_USAGE(.BOTH.,#124);
#122=SURFACE_STYLE_USAGE(.BOTH.,#125);
#123=SURFACE_SIDE_STYLE('',(#126));
#124=SURFACE_SIDE_STYLE('',(#127));
#125=SURFACE_SIDE_STYLE('',(#128));
#126=SURFACE_STYLE_FILL_AREA(#129);
#127=SURFACE_STYLE_FILL_AREA(#130);
#128=SURFACE_STYLE_FILL_AREA(#131);
#129=FILL_AREA_STYLE('',(#132));
#130=FILL_AREA_STYLE('',(#133));
#131=FILL_AREA_STYLE('',(#134));
#132=FILL_AREA_STYLE_COLOUR('',#135);
#133=FILL_AREA_STYLE_COLOUR('',#10);
#134=FILL_AREA_STYLE_COLOUR('',#10);
#135=DRAUGHTING_PRE_DEFINED_COLOUR('red');
#136=MANIFOLD_SOLID_BREP('Part 3',#111);
#137=MANIFOLD_SOLID_BREP('Part 1',#112);
#138=MANIFOLD_SOLID_BREP('Part 2',#113);
#139=SHAPE_DEFINITION_REPRESENTATION(#259,#142);
#140=SHAPE_DEFINITION_REPRESENTATION(#260,#143);
#141=SHAPE_DEFINITION_REPRESENTATION(#261,#144);
#142=SHAPE_REPRESENTATION('Part 3',(#145),#244);
#143=SHAPE_REPRESENTATION('Part 1',(#155),#245);
#144=SHAPE_REPRESENTATION('Part 2',(#161),#246);
#145=AXIS2_PLACEMENT_3D('',#211,#167,#168);
#146=AXIS2_PLACEMENT_3D('',#212,#169,#170);
#147=AXIS2_PLACEMENT_3D('',#213,#171,#172);
#148=AXIS2_PLACEMENT_3D('',#215,#173,#174);
#149=AXIS2_PLACEMENT_3D('',#217,#175,#176);
#150=AXIS2_PLACEMENT_3D('',#218,#177,#178);
#151=AXIS2_PLACEMENT_3D('',#220,#179,#180);
#152=AXIS2_PLACEMENT_3D('',#221,#181,#182);
#153=AXIS2_PLACEMENT_3D('',#223,#183,#184);
#154=AXIS2_PLACEMENT_3D('',#224,#185,#186);
#155=AXIS2_PLACEMENT_3D('',#225,#187,#188);
#156=AXIS2_PLACEMENT_3D('',#226,#189,#190);
#157=AXIS2_PLACEMENT_3D('',#227,#191,#192);
#158=AXIS2_PLACEMENT_3D('',#229,#193,#194);
#159=AXIS2_PLACEMENT_3D('',#231,#195,#196);
#160=AXIS2_PLACEMENT_3D('',#232,#197,#198);
#161=AXIS2_PLACEMENT_3D('',#233,#199,#200);
#162=AXIS2_PLACEMENT_3D('',#234,#201,#202);
#163=AXIS2_PLACEMENT_3D('',#235,#203,#204);
#164=AXIS2_PLACEMENT_3D('',#237,#205,#206);
#165=AXIS2_PLACEMENT_3D('',#239,#207,#208);
#166=AXIS2_PLACEMENT_3D('',#240,#209,#210);
#167=DIRECTION('',(0.,0.,1.));
#168=DIRECTION('',(1.,0.,0.));
#169=DIRECTION('',(0.,0.,-1.));
#170=DIRECTION('',(-1.,0.,0.));
#171=DIRECTION('',(0.,0.,1.));
#172=DIRECTION('',(1.,0.,0.));
#173=DIRECTION('',(0.,0.,1.));
#174=DIRECTION('',(1.,0.,0.));
#175=DIRECTION('',(0.,0.,1.));
#176=DIRECTION('',(1.,0.,0.));
#177=DIRECTION('',(0.,0.,1.));
#178=DIRECTION('',(1.,0.,0.));
#179=DIRECTION('',(0.,0.,1.));
#180=DIRECTION('',(1.,0.,0.));
#181=DIRECTION('',(0.,0.,1.));
#182=DIRECTION('',(1.,0.,0.));
#183=DIRECTION('',(0.,0.,1.));
#184=DIRECTION('',(1.,0.,0.));
#185=DIRECTION('',(0.,0.,1.));
#186=DIRECTION('',(1.,0.,0.));
#187=DIRECTION('',(0.,0.,1.));
#188=DIRECTION('',(1.,0.,0.));
#189=DIRECTION('',(0.,0.,1.));
#190=DIRECTION('',(1.,0.,0.));
#191=DIRECTION('',(0.,0.,1.));
#192=DIRECTION('',(1.,0.,0.));
#193=DIRECTION('',(0.,0.,1.));
#194=DIRECTION('',(1.,0.,0.));
#195=DIRECTION('',(0.,0.,1.));
#196=DIRECTION('',(1.,0.,0.));
#197=DIRECTION('',(0.,0.,1.));
#198=DIRECTION('',(1.,0.,0.));
#199=DIRECTION('',(0.,0.,1.));
#200=DIRECTION('',(1.,0.,0.));
#201=DIRECTION('',(0.,0.,1.));
#202=DIRECTION('',(1.,0.,0.));
#203=DIRECTION('',(0.,0.,1.));
#204=DIRECTION('',(1.,0.,0.));
#205=DIRECTION('',(0.,0.,1.));
#206=DIRECTION('',(1.,0.,0.));
#207=DIRECTION('',(0.,0.,1.));
#208=DIRECTION('',(1.,0.,0.));
#209=DIRECTION('',(0.,0.,1.));
#210=DIRECTION('',(1.,0.,0.));
#211=CARTESIAN_POINT('',(0.,0.,0.));
#212=CARTESIAN_POINT('',(0.,1.92881870865708E-19,0.0125));
#213=CARTESIAN_POINT('',(0.,1.92881870865708E-19,0.00025));
#214=CARTESIAN_POINT('',(0.00315,1.92881870865708E-19,0.00025));
#215=CARTESIAN_POINT('',(0.,1.92881870865708E-19,0.01175));
#216=CARTESIAN_POINT('',(0.00315,1.92881870865708E-19,0.01175));
#217=CARTESIAN_POINT('',(0.,0.,0.0125));
#218=CARTESIAN_POINT('',(0.,1.92881870865708E-19,0.0125));
#219=CARTESIAN_POINT('',(0.0024,1.92881870865708E-19,0.0125));
#220=CARTESIAN_POINT('',(0.,0.,0.));
#221=CARTESIAN_POINT('',(0.,1.92881870865708E-19,0.));
#222=CARTESIAN_POINT('',(0.0029,1.92881870865708E-19,0.));
#223=CARTESIAN_POINT('',(0.,1.92881870865708E-19,0.01175));
#224=CARTESIAN_POINT('',(0.,1.92881870865708E-19,0.00025));
#225=CARTESIAN_POINT('',(0.,0.,0.));
#226=CARTESIAN_POINT('',(0.00125,2.16327471852521E-20,-0.005));
#227=CARTESIAN_POINT('',(0.00125,2.16327471852521E-20,-0.005));
#228=CARTESIAN_POINT('',(0.00165,2.16327471852521E-20,-0.005));
#229=CARTESIAN_POINT('',(0.00125,2.16327471852521E-20,0.));
#230=CARTESIAN_POINT('',(0.00165,2.16327471852521E-20,0.));
#231=CARTESIAN_POINT('',(0.,0.,-0.005));
#232=CARTESIAN_POINT('',(0.,0.,0.));
#233=CARTESIAN_POINT('',(0.,0.,0.));
#234=CARTESIAN_POINT('',(-0.00125,2.44929359829471E-20,-0.005));
#235=CARTESIAN_POINT('',(-0.00125,2.44929359829471E-20,-0.005));
#236=CARTESIAN_POINT('',(-0.00085,2.44929359829471E-20,-0.005));
#237=CARTESIAN_POINT('',(-0.00125,2.44929359829471E-20,0.));
#238=CARTESIAN_POINT('',(-0.00085,2.44929359829471E-20,0.));
#239=CARTESIAN_POINT('',(0.,0.,-0.005));
#240=CARTESIAN_POINT('',(0.,0.,0.));
#241=MECHANICAL_DESIGN_GEOMETRIC_PRESENTATION_REPRESENTATION('',(#114),
#244);
#242=MECHANICAL_DESIGN_GEOMETRIC_PRESENTATION_REPRESENTATION('',(#115),
#245);
#243=MECHANICAL_DESIGN_GEOMETRIC_PRESENTATION_REPRESENTATION('',(#116),
#246);
#244=(
GEOMETRIC_REPRESENTATION_CONTEXT(3)
GLOBAL_UNCERTAINTY_ASSIGNED_CONTEXT((#247))
GLOBAL_UNIT_ASSIGNED_CONTEXT((#256,#253,#250))
REPRESENTATION_CONTEXT('Part 3','TOP_LEVEL_ASSEMBLY_PART')
);
#245=(
GEOMETRIC_REPRESENTATION_CONTEXT(3)
GLOBAL_UNCERTAINTY_ASSIGNED_CONTEXT((#248))
GLOBAL_UNIT_ASSIGNED_CONTEXT((#257,#254,#251))
REPRESENTATION_CONTEXT('Part 1','TOP_LEVEL_ASSEMBLY_PART')
);
#246=(
GEOMETRIC_REPRESENTATION_CONTEXT(3)
GLOBAL_UNCERTAINTY_ASSIGNED_CONTEXT((#249))
GLOBAL_UNIT_ASSIGNED_CONTEXT((#258,#255,#252))
REPRESENTATION_CONTEXT('Part 2','TOP_LEVEL_ASSEMBLY_PART')
);
#247=UNCERTAINTY_MEASURE_WITH_UNIT(LENGTH_MEASURE(5.E-6),#256,
'DISTANCE_ACCURACY_VALUE','Maximum Tolerance applied to model');
#248=UNCERTAINTY_MEASURE_WITH_UNIT(LENGTH_MEASURE(5.E-6),#257,
'DISTANCE_ACCURACY_VALUE','Maximum Tolerance applied to model');
#249=UNCERTAINTY_MEASURE_WITH_UNIT(LENGTH_MEASURE(5.E-6),#258,
'DISTANCE_ACCURACY_VALUE','Maximum Tolerance applied to model');
#250=(
NAMED_UNIT(*)
SI_UNIT($,.STERADIAN.)
SOLID_ANGLE_UNIT()
);
#251=(
NAMED_UNIT(*)
SI_UNIT($,.STERADIAN.)
SOLID_ANGLE_UNIT()
);
#252=(
NAMED_UNIT(*)
SI_UNIT($,.STERADIAN.)
SOLID_ANGLE_UNIT()
);
#253=(
NAMED_UNIT(*)
PLANE_ANGLE_UNIT()
SI_UNIT($,.RADIAN.)
);
#254=(
NAMED_UNIT(*)
PLANE_ANGLE_UNIT()
SI_UNIT($,.RADIAN.)
);
#255=(
NAMED_UNIT(*)
PLANE_ANGLE_UNIT()
SI_UNIT($,.RADIAN.)
);
#256=(
LENGTH_UNIT()
NAMED_UNIT(*)
SI_UNIT($,.METRE.)
);
#257=(
LENGTH_UNIT()
NAMED_UNIT(*)
SI_UNIT($,.METRE.)
);
#258=(
LENGTH_UNIT()
NAMED_UNIT(*)
SI_UNIT($,.METRE.)
);
#259=PRODUCT_DEFINITION_SHAPE('','',#262);
#260=PRODUCT_DEFINITION_SHAPE('','',#263);
#261=PRODUCT_DEFINITION_SHAPE('','',#264);
#262=PRODUCT_DEFINITION('','',#268,#265);
#263=PRODUCT_DEFINITION('','',#269,#266);
#264=PRODUCT_DEFINITION('','',#270,#267);
#265=PRODUCT_DEFINITION_CONTEXT('',#286,'design');
#266=PRODUCT_DEFINITION_CONTEXT('',#287,'design');
#267=PRODUCT_DEFINITION_CONTEXT('',#288,'design');
#268=PRODUCT_DEFINITION_FORMATION_WITH_SPECIFIED_SOURCE('','',#274,
 .NOT_KNOWN.);
#269=PRODUCT_DEFINITION_FORMATION_WITH_SPECIFIED_SOURCE('','',#275,
 .NOT_KNOWN.);
#270=PRODUCT_DEFINITION_FORMATION_WITH_SPECIFIED_SOURCE('','',#276,
 .NOT_KNOWN.);
#271=PRODUCT_RELATED_PRODUCT_CATEGORY('','',(#274));
#272=PRODUCT_RELATED_PRODUCT_CATEGORY('','',(#275));
#273=PRODUCT_RELATED_PRODUCT_CATEGORY('','',(#276));
#274=PRODUCT('Part 3','Part 3','Part 3',(#280));
#275=PRODUCT('Part 1','Part 1','Part 1',(#281));
#276=PRODUCT('Part 2','Part 2','Part 2',(#282));
#277=PRODUCT_CATEGORY('','');
#278=PRODUCT_CATEGORY('','');
#279=PRODUCT_CATEGORY('','');
#280=PRODUCT_CONTEXT('',#286,'mechanical');
#281=PRODUCT_CONTEXT('',#287,'mechanical');
#282=PRODUCT_CONTEXT('',#288,'mechanical');
#283=APPLICATION_PROTOCOL_DEFINITION('international standard',
'ap242_managed_model_based_3d_engineering',2011,#286);
#284=APPLICATION_PROTOCOL_DEFINITION('international standard',
'ap242_managed_model_based_3d_engineering',2011,#287);
#285=APPLICATION_PROTOCOL_DEFINITION('international standard',
'ap242_managed_model_based_3d_engineering',2011,#288);
#286=APPLICATION_CONTEXT('managed model based 3d engineering');
#287=APPLICATION_CONTEXT('managed model based 3d engineering');
#288=APPLICATION_CONTEXT('managed model based 3d engineering');
ENDSEC;
END-ISO-10303-21;
