ISO-10303-21;
HEADER;
/* R_Axial_DIN0204_L3.6mm_D1.6mm_P2.54mm_Vertical.step 3D STEP model for use in ECAD systems
 * Copyright (C) 2017, kicad StepUp
 * 
 * This work is licensed under the [Creative Commons CC-BY-SA 4.0 License](https://creativecommons.org/licenses/by-sa/4.0/legalcode), 
 * with the following exception:
 * To the extent that the creation of electronic designs that use 'Licensed Material' can be considered to be 'Adapted Material', 
 * then the copyright holder waives article 3 of the license with respect to these designs and any generated files which use data provided 
 * as part of the 'Licensed Material'.
 * You are free to use the library data in your own projects without the obligation to share your project files under this or any other license agreement.
 * However, if you wish to redistribute these libraries, or parts thereof (including in modified form) as a collection then the exception above does not apply. 
 * Please refer to https://github.com/KiCad/kicad-packages3D/blob/master/LICENSE.md for further clarification of the exception.
 * Disclaimer of Warranties and Limitation of Liability.
 * These libraries are provided in the hope that they will be useful, but are provided without warranty of any kind, express or implied.
 * *USE 3D CAD DATA AT YOUR OWN RISK*
 * *DO NOT RELY UPON ANY INFORMATION FOUND HERE WITHOUT INDEPENDENT VERIFICATION.*
 * 
 */

FILE_DESCRIPTION(
/* description */ ('model of R_Axial_DIN0204_L3.6mm_D1.6mm_P2.54mm_Vertical'),
/* implementation_level */ '2;1');

FILE_NAME(
/* name */ 'R_Axial_DIN0204_L3.6mm_D1.6mm_P2.54mm_Vertical.step',
/* time_stamp */ '2017-12-04T10:18:02',
/* author */ ('kicad StepUp','ksu'),
/* organization */ ('FreeCAD'),
/* preprocessor_version */ 'OCC',
/* originating_system */ 'kicad StepUp',
/* authorisation */ '');

FILE_SCHEMA(('AUTOMOTIVE_DESIGN_CC2 { 1 2 10303 214 -1 1 5 4 }'));
ENDSEC;

DATA;
#1 = APPLICATION_PROTOCOL_DEFINITION('committee draft',
'automotive_design',1997,#2);
#2 = APPLICATION_CONTEXT(
'core data for automotive mechanical design processes');
#3 = SHAPE_DEFINITION_REPRESENTATION(#4,#10);
#4 = PRODUCT_DEFINITION_SHAPE('','',#5);
#5 = PRODUCT_DEFINITION('design','',#6,#9);
#6 = PRODUCT_DEFINITION_FORMATION('','',#7);
#7 = PRODUCT('R_Axial_DIN0204_L36mm_D16mm_P254mm_Vertical',
'R_Axial_DIN0204_L36mm_D16mm_P254mm_Vertical','',(#8));
#8 = MECHANICAL_CONTEXT('',#2,'mechanical');
#9 = PRODUCT_DEFINITION_CONTEXT('part definition',#2,'design');
#10 = ADVANCED_BREP_SHAPE_REPRESENTATION('',(#11,#15),#402);
#11 = AXIS2_PLACEMENT_3D('',#12,#13,#14);
#12 = CARTESIAN_POINT('',(0.E+000,0.E+000,0.E+000));
#13 = DIRECTION('',(0.E+000,0.E+000,1.));
#14 = DIRECTION('',(1.,0.E+000,-0.E+000));
#15 = MANIFOLD_SOLID_BREP('',#16);
#16 = CLOSED_SHELL('',(#17,#50,#76,#96,#116,#141,#166,#186,#195,#220,
#246,#266,#291,#317,#342,#368,#393));
#17 = ADVANCED_FACE('',(#18),#45,.T.);
#18 = FACE_BOUND('',#19,.F.);
#19 = EDGE_LOOP('',(#20,#30,#37,#38));
#20 = ORIENTED_EDGE('',*,*,#21,.T.);
#21 = EDGE_CURVE('',#22,#24,#26,.T.);
#22 = VERTEX_POINT('',#23);
#23 = CARTESIAN_POINT('',(0.8,0.E+000,1.4));
#24 = VERTEX_POINT('',#25);
#25 = CARTESIAN_POINT('',(0.8,0.E+000,1.9));
#26 = LINE('',#27,#28);
#27 = CARTESIAN_POINT('',(0.8,0.E+000,1.));
#28 = VECTOR('',#29,1.);
#29 = DIRECTION('',(0.E+000,0.E+000,1.));
#30 = ORIENTED_EDGE('',*,*,#31,.T.);
#31 = EDGE_CURVE('',#24,#24,#32,.T.);
#32 = CIRCLE('',#33,0.8);
#33 = AXIS2_PLACEMENT_3D('',#34,#35,#36);
#34 = CARTESIAN_POINT('',(0.E+000,0.E+000,1.9));
#35 = DIRECTION('',(0.E+000,0.E+000,1.));
#36 = DIRECTION('',(1.,0.E+000,0.E+000));
#37 = ORIENTED_EDGE('',*,*,#21,.F.);
#38 = ORIENTED_EDGE('',*,*,#39,.F.);
#39 = EDGE_CURVE('',#22,#22,#40,.T.);
#40 = CIRCLE('',#41,0.8);
#41 = AXIS2_PLACEMENT_3D('',#42,#43,#44);
#42 = CARTESIAN_POINT('',(0.E+000,0.E+000,1.4));
#43 = DIRECTION('',(0.E+000,0.E+000,1.));
#44 = DIRECTION('',(1.,0.E+000,0.E+000));
#45 = CYLINDRICAL_SURFACE('',#46,0.8);
#46 = AXIS2_PLACEMENT_3D('',#47,#48,#49);
#47 = CARTESIAN_POINT('',(0.E+000,0.E+000,1.));
#48 = DIRECTION('',(-0.E+000,-0.E+000,-1.));
#49 = DIRECTION('',(1.,0.E+000,0.E+000));
#50 = ADVANCED_FACE('',(#51),#71,.T.);
#51 = FACE_BOUND('',#52,.F.);
#52 = EDGE_LOOP('',(#53,#62,#63,#64));
#53 = ORIENTED_EDGE('',*,*,#54,.F.);
#54 = EDGE_CURVE('',#22,#55,#57,.T.);
#55 = VERTEX_POINT('',#56);
#56 = CARTESIAN_POINT('',(0.4,0.E+000,1.));
#57 = CIRCLE('',#58,0.4);
#58 = AXIS2_PLACEMENT_3D('',#59,#60,#61);
#59 = CARTESIAN_POINT('',(0.4,0.E+000,1.4));
#60 = DIRECTION('',(-0.E+000,1.,0.E+000));
#61 = DIRECTION('',(1.,0.E+000,0.E+000));
#62 = ORIENTED_EDGE('',*,*,#39,.T.);
#63 = ORIENTED_EDGE('',*,*,#54,.T.);
#64 = ORIENTED_EDGE('',*,*,#65,.F.);
#65 = EDGE_CURVE('',#55,#55,#66,.T.);
#66 = CIRCLE('',#67,0.4);
#67 = AXIS2_PLACEMENT_3D('',#68,#69,#70);
#68 = CARTESIAN_POINT('',(0.E+000,0.E+000,1.));
#69 = DIRECTION('',(0.E+000,0.E+000,1.));
#70 = DIRECTION('',(1.,0.E+000,0.E+000));
#71 = TOROIDAL_SURFACE('',#72,0.4,0.4);
#72 = AXIS2_PLACEMENT_3D('',#73,#74,#75);
#73 = CARTESIAN_POINT('',(0.E+000,0.E+000,1.4));
#74 = DIRECTION('',(0.E+000,0.E+000,-1.));
#75 = DIRECTION('',(1.,0.E+000,0.E+000));
#76 = ADVANCED_FACE('',(#77,#80),#91,.F.);
#77 = FACE_BOUND('',#78,.F.);
#78 = EDGE_LOOP('',(#79));
#79 = ORIENTED_EDGE('',*,*,#31,.F.);
#80 = FACE_BOUND('',#81,.F.);
#81 = EDGE_LOOP('',(#82));
#82 = ORIENTED_EDGE('',*,*,#83,.F.);
#83 = EDGE_CURVE('',#84,#84,#86,.T.);
#84 = VERTEX_POINT('',#85);
#85 = CARTESIAN_POINT('',(0.72,0.E+000,1.9));
#86 = CIRCLE('',#87,0.72);
#87 = AXIS2_PLACEMENT_3D('',#88,#89,#90);
#88 = CARTESIAN_POINT('',(0.E+000,0.E+000,1.9));
#89 = DIRECTION('',(0.E+000,0.E+000,-1.));
#90 = DIRECTION('',(1.,0.E+000,0.E+000));
#91 = PLANE('',#92);
#92 = AXIS2_PLACEMENT_3D('',#93,#94,#95);
#93 = CARTESIAN_POINT('',(0.8,0.E+000,1.9));
#94 = DIRECTION('',(0.E+000,0.E+000,-1.));
#95 = DIRECTION('',(-1.,0.E+000,0.E+000));
#96 = ADVANCED_FACE('',(#97,#100),#111,.T.);
#97 = FACE_BOUND('',#98,.T.);
#98 = EDGE_LOOP('',(#99));
#99 = ORIENTED_EDGE('',*,*,#65,.F.);
#100 = FACE_BOUND('',#101,.T.);
#101 = EDGE_LOOP('',(#102));
#102 = ORIENTED_EDGE('',*,*,#103,.T.);
#103 = EDGE_CURVE('',#104,#104,#106,.T.);
#104 = VERTEX_POINT('',#105);
#105 = CARTESIAN_POINT('',(0.25,0.E+000,1.));
#106 = CIRCLE('',#107,0.25);
#107 = AXIS2_PLACEMENT_3D('',#108,#109,#110);
#108 = CARTESIAN_POINT('',(0.E+000,0.E+000,1.));
#109 = DIRECTION('',(0.E+000,0.E+000,1.));
#110 = DIRECTION('',(1.,0.E+000,0.E+000));
#111 = PLANE('',#112);
#112 = AXIS2_PLACEMENT_3D('',#113,#114,#115);
#113 = CARTESIAN_POINT('',(0.8,0.E+000,1.));
#114 = DIRECTION('',(0.E+000,0.E+000,-1.));
#115 = DIRECTION('',(-1.,0.E+000,0.E+000));
#116 = ADVANCED_FACE('',(#117),#136,.T.);
#117 = FACE_BOUND('',#118,.F.);
#118 = EDGE_LOOP('',(#119,#127,#128,#129));
#119 = ORIENTED_EDGE('',*,*,#120,.F.);
#120 = EDGE_CURVE('',#84,#121,#123,.T.);
#121 = VERTEX_POINT('',#122);
#122 = CARTESIAN_POINT('',(0.72,0.E+000,3.7));
#123 = LINE('',#124,#125);
#124 = CARTESIAN_POINT('',(0.72,0.E+000,1.));
#125 = VECTOR('',#126,1.);
#126 = DIRECTION('',(0.E+000,0.E+000,1.));
#127 = ORIENTED_EDGE('',*,*,#83,.T.);
#128 = ORIENTED_EDGE('',*,*,#120,.T.);
#129 = ORIENTED_EDGE('',*,*,#130,.F.);
#130 = EDGE_CURVE('',#121,#121,#131,.T.);
#131 = CIRCLE('',#132,0.72);
#132 = AXIS2_PLACEMENT_3D('',#133,#134,#135);
#133 = CARTESIAN_POINT('',(0.E+000,0.E+000,3.7));
#134 = DIRECTION('',(0.E+000,0.E+000,-1.));
#135 = DIRECTION('',(1.,0.E+000,0.E+000));
#136 = CYLINDRICAL_SURFACE('',#137,0.72);
#137 = AXIS2_PLACEMENT_3D('',#138,#139,#140);
#138 = CARTESIAN_POINT('',(0.E+000,0.E+000,1.));
#139 = DIRECTION('',(-0.E+000,-0.E+000,-1.));
#140 = DIRECTION('',(1.,0.E+000,0.E+000));
#141 = ADVANCED_FACE('',(#142),#161,.T.);
#142 = FACE_BOUND('',#143,.T.);
#143 = EDGE_LOOP('',(#144,#153,#159,#160));
#144 = ORIENTED_EDGE('',*,*,#145,.T.);
#145 = EDGE_CURVE('',#146,#146,#148,.T.);
#146 = VERTEX_POINT('',#147);
#147 = CARTESIAN_POINT('',(0.25,-6.123233995737E-017,-3.));
#148 = CIRCLE('',#149,0.25);
#149 = AXIS2_PLACEMENT_3D('',#150,#151,#152);
#150 = CARTESIAN_POINT('',(0.E+000,0.E+000,-3.));
#151 = DIRECTION('',(0.E+000,0.E+000,1.));
#152 = DIRECTION('',(1.,0.E+000,0.E+000));
#153 = ORIENTED_EDGE('',*,*,#154,.T.);
#154 = EDGE_CURVE('',#146,#104,#155,.T.);
#155 = LINE('',#156,#157);
#156 = CARTESIAN_POINT('',(0.25,0.E+000,-3.));
#157 = VECTOR('',#158,1.);
#158 = DIRECTION('',(0.E+000,0.E+000,1.));
#159 = ORIENTED_EDGE('',*,*,#103,.F.);
#160 = ORIENTED_EDGE('',*,*,#154,.F.);
#161 = CYLINDRICAL_SURFACE('',#162,0.25);
#162 = AXIS2_PLACEMENT_3D('',#163,#164,#165);
#163 = CARTESIAN_POINT('',(0.E+000,0.E+000,-3.));
#164 = DIRECTION('',(0.E+000,0.E+000,1.));
#165 = DIRECTION('',(1.,0.E+000,0.E+000));
#166 = ADVANCED_FACE('',(#167,#178),#181,.T.);
#167 = FACE_BOUND('',#168,.T.);
#168 = EDGE_LOOP('',(#169));
#169 = ORIENTED_EDGE('',*,*,#170,.F.);
#170 = EDGE_CURVE('',#171,#171,#173,.T.);
#171 = VERTEX_POINT('',#172);
#172 = CARTESIAN_POINT('',(0.8,0.E+000,3.7));
#173 = CIRCLE('',#174,0.8);
#174 = AXIS2_PLACEMENT_3D('',#175,#176,#177);
#175 = CARTESIAN_POINT('',(0.E+000,0.E+000,3.7));
#176 = DIRECTION('',(0.E+000,0.E+000,1.));
#177 = DIRECTION('',(1.,0.E+000,0.E+000));
#178 = FACE_BOUND('',#179,.T.);
#179 = EDGE_LOOP('',(#180));
#180 = ORIENTED_EDGE('',*,*,#130,.F.);
#181 = PLANE('',#182);
#182 = AXIS2_PLACEMENT_3D('',#183,#184,#185);
#183 = CARTESIAN_POINT('',(0.8,0.E+000,3.7));
#184 = DIRECTION('',(0.E+000,0.E+000,-1.));
#185 = DIRECTION('',(-1.,0.E+000,0.E+000));
#186 = ADVANCED_FACE('',(#187),#190,.T.);
#187 = FACE_BOUND('',#188,.F.);
#188 = EDGE_LOOP('',(#189));
#189 = ORIENTED_EDGE('',*,*,#145,.T.);
#190 = PLANE('',#191);
#191 = AXIS2_PLACEMENT_3D('',#192,#193,#194);
#192 = CARTESIAN_POINT('',(0.25,0.E+000,-3.));
#193 = DIRECTION('',(0.E+000,0.E+000,-1.));
#194 = DIRECTION('',(-1.,0.E+000,0.E+000));
#195 = ADVANCED_FACE('',(#196),#215,.T.);
#196 = FACE_BOUND('',#197,.F.);
#197 = EDGE_LOOP('',(#198,#206,#213,#214));
#198 = ORIENTED_EDGE('',*,*,#199,.T.);
#199 = EDGE_CURVE('',#171,#200,#202,.T.);
#200 = VERTEX_POINT('',#201);
#201 = CARTESIAN_POINT('',(0.8,0.E+000,4.2));
#202 = LINE('',#203,#204);
#203 = CARTESIAN_POINT('',(0.8,0.E+000,3.7));
#204 = VECTOR('',#205,1.);
#205 = DIRECTION('',(0.E+000,0.E+000,1.));
#206 = ORIENTED_EDGE('',*,*,#207,.T.);
#207 = EDGE_CURVE('',#200,#200,#208,.T.);
#208 = CIRCLE('',#209,0.8);
#209 = AXIS2_PLACEMENT_3D('',#210,#211,#212);
#210 = CARTESIAN_POINT('',(0.E+000,0.E+000,4.2));
#211 = DIRECTION('',(0.E+000,0.E+000,1.));
#212 = DIRECTION('',(1.,0.E+000,0.E+000));
#213 = ORIENTED_EDGE('',*,*,#199,.F.);
#214 = ORIENTED_EDGE('',*,*,#170,.F.);
#215 = CYLINDRICAL_SURFACE('',#216,0.8);
#216 = AXIS2_PLACEMENT_3D('',#217,#218,#219);
#217 = CARTESIAN_POINT('',(0.E+000,0.E+000,3.7));
#218 = DIRECTION('',(-0.E+000,-0.E+000,-1.));
#219 = DIRECTION('',(1.,0.E+000,0.E+000));
#220 = ADVANCED_FACE('',(#221),#241,.T.);
#221 = FACE_BOUND('',#222,.T.);
#222 = EDGE_LOOP('',(#223,#232,#233,#234));
#223 = ORIENTED_EDGE('',*,*,#224,.F.);
#224 = EDGE_CURVE('',#200,#225,#227,.T.);
#225 = VERTEX_POINT('',#226);
#226 = CARTESIAN_POINT('',(0.4,0.E+000,4.6));
#227 = CIRCLE('',#228,0.4);
#228 = AXIS2_PLACEMENT_3D('',#229,#230,#231);
#229 = CARTESIAN_POINT('',(0.4,0.E+000,4.2));
#230 = DIRECTION('',(0.E+000,-1.,0.E+000));
#231 = DIRECTION('',(1.,0.E+000,0.E+000));
#232 = ORIENTED_EDGE('',*,*,#207,.T.);
#233 = ORIENTED_EDGE('',*,*,#224,.T.);
#234 = ORIENTED_EDGE('',*,*,#235,.F.);
#235 = EDGE_CURVE('',#225,#225,#236,.T.);
#236 = CIRCLE('',#237,0.4);
#237 = AXIS2_PLACEMENT_3D('',#238,#239,#240);
#238 = CARTESIAN_POINT('',(0.E+000,0.E+000,4.6));
#239 = DIRECTION('',(0.E+000,0.E+000,1.));
#240 = DIRECTION('',(1.,0.E+000,0.E+000));
#241 = TOROIDAL_SURFACE('',#242,0.4,0.4);
#242 = AXIS2_PLACEMENT_3D('',#243,#244,#245);
#243 = CARTESIAN_POINT('',(0.E+000,0.E+000,4.2));
#244 = DIRECTION('',(0.E+000,0.E+000,1.));
#245 = DIRECTION('',(1.,0.E+000,0.E+000));
#246 = ADVANCED_FACE('',(#247,#250),#261,.F.);
#247 = FACE_BOUND('',#248,.F.);
#248 = EDGE_LOOP('',(#249));
#249 = ORIENTED_EDGE('',*,*,#235,.F.);
#250 = FACE_BOUND('',#251,.F.);
#251 = EDGE_LOOP('',(#252));
#252 = ORIENTED_EDGE('',*,*,#253,.T.);
#253 = EDGE_CURVE('',#254,#254,#256,.T.);
#254 = VERTEX_POINT('',#255);
#255 = CARTESIAN_POINT('',(0.25,0.E+000,4.6));
#256 = CIRCLE('',#257,0.25);
#257 = AXIS2_PLACEMENT_3D('',#258,#259,#260);
#258 = CARTESIAN_POINT('',(0.E+000,0.E+000,4.6));
#259 = DIRECTION('',(0.E+000,0.E+000,1.));
#260 = DIRECTION('',(1.,0.E+000,0.E+000));
#261 = PLANE('',#262);
#262 = AXIS2_PLACEMENT_3D('',#263,#264,#265);
#263 = CARTESIAN_POINT('',(0.8,0.E+000,4.6));
#264 = DIRECTION('',(0.E+000,0.E+000,-1.));
#265 = DIRECTION('',(-1.,0.E+000,0.E+000));
#266 = ADVANCED_FACE('',(#267),#286,.T.);
#267 = FACE_BOUND('',#268,.T.);
#268 = EDGE_LOOP('',(#269,#270,#278,#285));
#269 = ORIENTED_EDGE('',*,*,#253,.T.);
#270 = ORIENTED_EDGE('',*,*,#271,.T.);
#271 = EDGE_CURVE('',#254,#272,#274,.T.);
#272 = VERTEX_POINT('',#273);
#273 = CARTESIAN_POINT('',(0.25,0.E+000,5.6));
#274 = LINE('',#275,#276);
#275 = CARTESIAN_POINT('',(0.25,0.E+000,-3.));
#276 = VECTOR('',#277,1.);
#277 = DIRECTION('',(0.E+000,0.E+000,1.));
#278 = ORIENTED_EDGE('',*,*,#279,.F.);
#279 = EDGE_CURVE('',#272,#272,#280,.T.);
#280 = CIRCLE('',#281,0.25);
#281 = AXIS2_PLACEMENT_3D('',#282,#283,#284);
#282 = CARTESIAN_POINT('',(0.E+000,0.E+000,5.6));
#283 = DIRECTION('',(0.E+000,0.E+000,1.));
#284 = DIRECTION('',(1.,0.E+000,0.E+000));
#285 = ORIENTED_EDGE('',*,*,#271,.F.);
#286 = CYLINDRICAL_SURFACE('',#287,0.25);
#287 = AXIS2_PLACEMENT_3D('',#288,#289,#290);
#288 = CARTESIAN_POINT('',(0.E+000,0.E+000,-3.));
#289 = DIRECTION('',(0.E+000,0.E+000,1.));
#290 = DIRECTION('',(1.,0.E+000,0.E+000));
#291 = ADVANCED_FACE('',(#292),#312,.T.);
#292 = FACE_BOUND('',#293,.T.);
#293 = EDGE_LOOP('',(#294,#303,#310,#311));
#294 = ORIENTED_EDGE('',*,*,#295,.T.);
#295 = EDGE_CURVE('',#272,#296,#298,.T.);
#296 = VERTEX_POINT('',#297);
#297 = CARTESIAN_POINT('',(0.75,0.E+000,6.1));
#298 = CIRCLE('',#299,0.5);
#299 = AXIS2_PLACEMENT_3D('',#300,#301,#302);
#300 = CARTESIAN_POINT('',(0.75,9.184850993605E-017,5.6));
#301 = DIRECTION('',(0.E+000,1.,-0.E+000));
#302 = DIRECTION('',(-1.,0.E+000,2.368475785867E-015));
#303 = ORIENTED_EDGE('',*,*,#304,.T.);
#304 = EDGE_CURVE('',#296,#296,#305,.T.);
#305 = CIRCLE('',#306,0.25);
#306 = AXIS2_PLACEMENT_3D('',#307,#308,#309);
#307 = CARTESIAN_POINT('',(0.75,0.E+000,6.35));
#308 = DIRECTION('',(-1.,0.E+000,-2.577737862441E-015));
#309 = DIRECTION('',(-2.577737862441E-015,0.E+000,1.));
#310 = ORIENTED_EDGE('',*,*,#295,.F.);
#311 = ORIENTED_EDGE('',*,*,#279,.T.);
#312 = TOROIDAL_SURFACE('',#313,0.75,0.25);
#313 = AXIS2_PLACEMENT_3D('',#314,#315,#316);
#314 = CARTESIAN_POINT('',(0.75,0.E+000,5.6));
#315 = DIRECTION('',(0.E+000,1.,0.E+000));
#316 = DIRECTION('',(-1.,0.E+000,2.368475785867E-015));
#317 = ADVANCED_FACE('',(#318),#337,.T.);
#318 = FACE_BOUND('',#319,.T.);
#319 = EDGE_LOOP('',(#320,#328,#335,#336));
#320 = ORIENTED_EDGE('',*,*,#321,.T.);
#321 = EDGE_CURVE('',#296,#322,#324,.T.);
#322 = VERTEX_POINT('',#323);
#323 = CARTESIAN_POINT('',(1.79,0.E+000,6.1));
#324 = LINE('',#325,#326);
#325 = CARTESIAN_POINT('',(0.75,0.E+000,6.1));
#326 = VECTOR('',#327,1.);
#327 = DIRECTION('',(1.,0.E+000,0.E+000));
#328 = ORIENTED_EDGE('',*,*,#329,.F.);
#329 = EDGE_CURVE('',#322,#322,#330,.T.);
#330 = CIRCLE('',#331,0.25);
#331 = AXIS2_PLACEMENT_3D('',#332,#333,#334);
#332 = CARTESIAN_POINT('',(1.79,0.E+000,6.35));
#333 = DIRECTION('',(1.,-0.E+000,0.E+000));
#334 = DIRECTION('',(0.E+000,0.E+000,-1.));
#335 = ORIENTED_EDGE('',*,*,#321,.F.);
#336 = ORIENTED_EDGE('',*,*,#304,.F.);
#337 = CYLINDRICAL_SURFACE('',#338,0.25);
#338 = AXIS2_PLACEMENT_3D('',#339,#340,#341);
#339 = CARTESIAN_POINT('',(0.75,0.E+000,6.35));
#340 = DIRECTION('',(1.,0.E+000,0.E+000));
#341 = DIRECTION('',(0.E+000,0.E+000,-1.));
#342 = ADVANCED_FACE('',(#343),#363,.T.);
#343 = FACE_BOUND('',#344,.T.);
#344 = EDGE_LOOP('',(#345,#354,#361,#362));
#345 = ORIENTED_EDGE('',*,*,#346,.T.);
#346 = EDGE_CURVE('',#322,#347,#349,.T.);
#347 = VERTEX_POINT('',#348);
#348 = CARTESIAN_POINT('',(2.29,0.E+000,5.6));
#349 = CIRCLE('',#350,0.5);
#350 = AXIS2_PLACEMENT_3D('',#351,#352,#353);
#351 = CARTESIAN_POINT('',(1.79,9.184850993605E-017,5.6));
#352 = DIRECTION('',(-0.E+000,1.,0.E+000));
#353 = DIRECTION('',(2.960594732334E-015,0.E+000,1.));
#354 = ORIENTED_EDGE('',*,*,#355,.T.);
#355 = EDGE_CURVE('',#347,#347,#356,.T.);
#356 = CIRCLE('',#357,0.25);
#357 = AXIS2_PLACEMENT_3D('',#358,#359,#360);
#358 = CARTESIAN_POINT('',(2.54,0.E+000,5.6));
#359 = DIRECTION('',(-2.429708125824E-015,0.E+000,1.));
#360 = DIRECTION('',(1.,0.E+000,2.429708125824E-015));
#361 = ORIENTED_EDGE('',*,*,#346,.F.);
#362 = ORIENTED_EDGE('',*,*,#329,.T.);
#363 = TOROIDAL_SURFACE('',#364,0.75,0.25);
#364 = AXIS2_PLACEMENT_3D('',#365,#366,#367);
#365 = CARTESIAN_POINT('',(1.79,0.E+000,5.6));
#366 = DIRECTION('',(0.E+000,1.,0.E+000));
#367 = DIRECTION('',(2.960594732334E-015,0.E+000,1.));
#368 = ADVANCED_FACE('',(#369),#388,.T.);
#369 = FACE_BOUND('',#370,.T.);
#370 = EDGE_LOOP('',(#371,#379,#386,#387));
#371 = ORIENTED_EDGE('',*,*,#372,.T.);
#372 = EDGE_CURVE('',#347,#373,#375,.T.);
#373 = VERTEX_POINT('',#374);
#374 = CARTESIAN_POINT('',(2.29,-6.123233995737E-017,-3.));
#375 = LINE('',#376,#377);
#376 = CARTESIAN_POINT('',(2.29,0.E+000,5.6));
#377 = VECTOR('',#378,1.);
#378 = DIRECTION('',(0.E+000,0.E+000,-1.));
#379 = ORIENTED_EDGE('',*,*,#380,.F.);
#380 = EDGE_CURVE('',#373,#373,#381,.T.);
#381 = CIRCLE('',#382,0.25);
#382 = AXIS2_PLACEMENT_3D('',#383,#384,#385);
#383 = CARTESIAN_POINT('',(2.54,0.E+000,-3.));
#384 = DIRECTION('',(0.E+000,0.E+000,-1.));
#385 = DIRECTION('',(-1.,0.E+000,0.E+000));
#386 = ORIENTED_EDGE('',*,*,#372,.F.);
#387 = ORIENTED_EDGE('',*,*,#355,.F.);
#388 = CYLINDRICAL_SURFACE('',#389,0.25);
#389 = AXIS2_PLACEMENT_3D('',#390,#391,#392);
#390 = CARTESIAN_POINT('',(2.54,0.E+000,5.6));
#391 = DIRECTION('',(0.E+000,0.E+000,-1.));
#392 = DIRECTION('',(-1.,0.E+000,0.E+000));
#393 = ADVANCED_FACE('',(#394),#397,.F.);
#394 = FACE_BOUND('',#395,.T.);
#395 = EDGE_LOOP('',(#396));
#396 = ORIENTED_EDGE('',*,*,#380,.T.);
#397 = PLANE('',#398);
#398 = AXIS2_PLACEMENT_3D('',#399,#400,#401);
#399 = CARTESIAN_POINT('',(2.29,0.E+000,-3.));
#400 = DIRECTION('',(0.E+000,0.E+000,1.));
#401 = DIRECTION('',(1.,0.E+000,0.E+000));
#402 = ( GEOMETRIC_REPRESENTATION_CONTEXT(3)
GLOBAL_UNCERTAINTY_ASSIGNED_CONTEXT((#406)) GLOBAL_UNIT_ASSIGNED_CONTEXT
((#403,#404,#405)) REPRESENTATION_CONTEXT('Context #1',
'3D Context with UNIT and UNCERTAINTY') );
#403 = ( LENGTH_UNIT() NAMED_UNIT(*) SI_UNIT(.MILLI.,.METRE.) );
#404 = ( NAMED_UNIT(*) PLANE_ANGLE_UNIT() SI_UNIT($,.RADIAN.) );
#405 = ( NAMED_UNIT(*) SI_UNIT($,.STERADIAN.) SOLID_ANGLE_UNIT() );
#406 = UNCERTAINTY_MEASURE_WITH_UNIT(LENGTH_MEASURE(1.E-007),#403,
'distance_accuracy_value','confusion accuracy');
#407 = PRODUCT_TYPE('part',$,(#7));
#408 = MECHANICAL_DESIGN_GEOMETRIC_PRESENTATION_REPRESENTATION('',(#409,
#417,#424,#431,#438,#445,#453,#460,#467,#474,#481,#488,#495,#502,
#509,#516,#523),#402);
#409 = STYLED_ITEM('color',(#410),#17);
#410 = PRESENTATION_STYLE_ASSIGNMENT((#411));
#411 = SURFACE_STYLE_USAGE(.BOTH.,#412);
#412 = SURFACE_SIDE_STYLE('',(#413));
#413 = SURFACE_STYLE_FILL_AREA(#414);
#414 = FILL_AREA_STYLE('',(#415));
#415 = FILL_AREA_STYLE_COLOUR('',#416);
#416 = COLOUR_RGB('',0.883000016212,0.711000025272,0.49200001359);
#417 = STYLED_ITEM('color',(#418),#50);
#418 = PRESENTATION_STYLE_ASSIGNMENT((#419));
#419 = SURFACE_STYLE_USAGE(.BOTH.,#420);
#420 = SURFACE_SIDE_STYLE('',(#421));
#421 = SURFACE_STYLE_FILL_AREA(#422);
#422 = FILL_AREA_STYLE('',(#423));
#423 = FILL_AREA_STYLE_COLOUR('',#416);
#424 = STYLED_ITEM('color',(#425),#76);
#425 = PRESENTATION_STYLE_ASSIGNMENT((#426));
#426 = SURFACE_STYLE_USAGE(.BOTH.,#427);
#427 = SURFACE_SIDE_STYLE('',(#428));
#428 = SURFACE_STYLE_FILL_AREA(#429);
#429 = FILL_AREA_STYLE('',(#430));
#430 = FILL_AREA_STYLE_COLOUR('',#416);
#431 = STYLED_ITEM('color',(#432),#96);
#432 = PRESENTATION_STYLE_ASSIGNMENT((#433));
#433 = SURFACE_STYLE_USAGE(.BOTH.,#434);
#434 = SURFACE_SIDE_STYLE('',(#435));
#435 = SURFACE_STYLE_FILL_AREA(#436);
#436 = FILL_AREA_STYLE('',(#437));
#437 = FILL_AREA_STYLE_COLOUR('',#416);
#438 = STYLED_ITEM('color',(#439),#116);
#439 = PRESENTATION_STYLE_ASSIGNMENT((#440));
#440 = SURFACE_STYLE_USAGE(.BOTH.,#441);
#441 = SURFACE_SIDE_STYLE('',(#442));
#442 = SURFACE_STYLE_FILL_AREA(#443);
#443 = FILL_AREA_STYLE('',(#444));
#444 = FILL_AREA_STYLE_COLOUR('',#416);
#445 = STYLED_ITEM('color',(#446),#141);
#446 = PRESENTATION_STYLE_ASSIGNMENT((#447));
#447 = SURFACE_STYLE_USAGE(.BOTH.,#448);
#448 = SURFACE_SIDE_STYLE('',(#449));
#449 = SURFACE_STYLE_FILL_AREA(#450);
#450 = FILL_AREA_STYLE('',(#451));
#451 = FILL_AREA_STYLE_COLOUR('',#452);
#452 = COLOUR_RGB('',0.824000000954,0.819999992847,0.78100001812);
#453 = STYLED_ITEM('color',(#454),#166);
#454 = PRESENTATION_STYLE_ASSIGNMENT((#455));
#455 = SURFACE_STYLE_USAGE(.BOTH.,#456);
#456 = SURFACE_SIDE_STYLE('',(#457));
#457 = SURFACE_STYLE_FILL_AREA(#458);
#458 = FILL_AREA_STYLE('',(#459));
#459 = FILL_AREA_STYLE_COLOUR('',#416);
#460 = STYLED_ITEM('color',(#461),#186);
#461 = PRESENTATION_STYLE_ASSIGNMENT((#462));
#462 = SURFACE_STYLE_USAGE(.BOTH.,#463);
#463 = SURFACE_SIDE_STYLE('',(#464));
#464 = SURFACE_STYLE_FILL_AREA(#465);
#465 = FILL_AREA_STYLE('',(#466));
#466 = FILL_AREA_STYLE_COLOUR('',#452);
#467 = STYLED_ITEM('color',(#468),#195);
#468 = PRESENTATION_STYLE_ASSIGNMENT((#469));
#469 = SURFACE_STYLE_USAGE(.BOTH.,#470);
#470 = SURFACE_SIDE_STYLE('',(#471));
#471 = SURFACE_STYLE_FILL_AREA(#472);
#472 = FILL_AREA_STYLE('',(#473));
#473 = FILL_AREA_STYLE_COLOUR('',#416);
#474 = STYLED_ITEM('color',(#475),#220);
#475 = PRESENTATION_STYLE_ASSIGNMENT((#476));
#476 = SURFACE_STYLE_USAGE(.BOTH.,#477);
#477 = SURFACE_SIDE_STYLE('',(#478));
#478 = SURFACE_STYLE_FILL_AREA(#479);
#479 = FILL_AREA_STYLE('',(#480));
#480 = FILL_AREA_STYLE_COLOUR('',#416);
#481 = STYLED_ITEM('color',(#482),#246);
#482 = PRESENTATION_STYLE_ASSIGNMENT((#483));
#483 = SURFACE_STYLE_USAGE(.BOTH.,#484);
#484 = SURFACE_SIDE_STYLE('',(#485));
#485 = SURFACE_STYLE_FILL_AREA(#486);
#486 = FILL_AREA_STYLE('',(#487));
#487 = FILL_AREA_STYLE_COLOUR('',#416);
#488 = STYLED_ITEM('color',(#489),#266);
#489 = PRESENTATION_STYLE_ASSIGNMENT((#490));
#490 = SURFACE_STYLE_USAGE(.BOTH.,#491);
#491 = SURFACE_SIDE_STYLE('',(#492));
#492 = SURFACE_STYLE_FILL_AREA(#493);
#493 = FILL_AREA_STYLE('',(#494));
#494 = FILL_AREA_STYLE_COLOUR('',#452);
#495 = STYLED_ITEM('color',(#496),#291);
#496 = PRESENTATION_STYLE_ASSIGNMENT((#497));
#497 = SURFACE_STYLE_USAGE(.BOTH.,#498);
#498 = SURFACE_SIDE_STYLE('',(#499));
#499 = SURFACE_STYLE_FILL_AREA(#500);
#500 = FILL_AREA_STYLE('',(#501));
#501 = FILL_AREA_STYLE_COLOUR('',#452);
#502 = STYLED_ITEM('color',(#503),#317);
#503 = PRESENTATION_STYLE_ASSIGNMENT((#504));
#504 = SURFACE_STYLE_USAGE(.BOTH.,#505);
#505 = SURFACE_SIDE_STYLE('',(#506));
#506 = SURFACE_STYLE_FILL_AREA(#507);
#507 = FILL_AREA_STYLE('',(#508));
#508 = FILL_AREA_STYLE_COLOUR('',#452);
#509 = STYLED_ITEM('color',(#510),#342);
#510 = PRESENTATION_STYLE_ASSIGNMENT((#511));
#511 = SURFACE_STYLE_USAGE(.BOTH.,#512);
#512 = SURFACE_SIDE_STYLE('',(#513));
#513 = SURFACE_STYLE_FILL_AREA(#514);
#514 = FILL_AREA_STYLE('',(#515));
#515 = FILL_AREA_STYLE_COLOUR('',#452);
#516 = STYLED_ITEM('color',(#517),#368);
#517 = PRESENTATION_STYLE_ASSIGNMENT((#518));
#518 = SURFACE_STYLE_USAGE(.BOTH.,#519);
#519 = SURFACE_SIDE_STYLE('',(#520));
#520 = SURFACE_STYLE_FILL_AREA(#521);
#521 = FILL_AREA_STYLE('',(#522));
#522 = FILL_AREA_STYLE_COLOUR('',#452);
#523 = STYLED_ITEM('color',(#524),#393);
#524 = PRESENTATION_STYLE_ASSIGNMENT((#525));
#525 = SURFACE_STYLE_USAGE(.BOTH.,#526);
#526 = SURFACE_SIDE_STYLE('',(#527));
#527 = SURFACE_STYLE_FILL_AREA(#528);
#528 = FILL_AREA_STYLE('',(#529));
#529 = FILL_AREA_STYLE_COLOUR('',#452);
ENDSEC;
END-ISO-10303-21;
