ISO-10303-21;
HEADER;
FILE_DESCRIPTION (( 'STEP AP214' ),
    '1' );
FILE_NAME ('261.STEP',
    '2022-09-13T15:26:19',
    ( '' ),
    ( '' ),
    'SwSTEP 2.0',
    'SolidWorks 2013',
    '' );
FILE_SCHEMA (( 'AUTOMOTIVE_DESIGN' ));
ENDSEC;

DATA;
#1 = EDGE_CURVE ( 'NONE', #123, #123, #67, .T. ) ;
#2 = CYLINDRICAL_SURFACE ( 'NONE', #275, 0.09100562686432399400 ) ;
#3 = FACE_OUTER_BOUND ( 'NONE', #264, .T. ) ;
#4 = ORIENTED_EDGE ( 'NONE', *, *, #147, .F. ) ;
#5 = AXIS2_PLACEMENT_3D ( 'NONE', #171, #312, #170 ) ;
#6 = CIRCLE ( 'NONE', #333, 0.1049098177213177200 ) ;
#7 = CLOSED_SHELL ( 'NONE', ( #290, #338, #184, #15, #247, #354, #196, #319, #215, #332, #363, #336, #104, #78, #305 ) ) ;
#8 = MANIFOLD_SOLID_BREP ( 'Revolve1', #7 ) ;
#9 = EDGE_CURVE ( 'NONE', #41, #41, #100, .T. ) ;
#10 = APPLICATION_PROTOCOL_DEFINITION ( 'draft international standard', 'automotive_design', 1998, #208 ) ;
#11 = CIRCLE ( 'NONE', #150, 0.09293109039507023400 ) ;
#12 = ORIENTED_EDGE ( 'NONE', *, *, #1, .F. ) ;
#13 = CARTESIAN_POINT ( 'NONE',  ( 0.0000000000000000000, 0.05287257865376273500, -0.07900562686432399700 ) ) ;
#14 = DIRECTION ( 'NONE',  ( 0.0000000000000000000, 0.0000000000000000000, -1.000000000000000000 ) ) ;
#15 = ADVANCED_FACE ( 'NONE', ( #62, #144 ), #306, .T. ) ;
#16 = CARTESIAN_POINT ( 'NONE',  ( 0.0000000000000000000, 0.1234905639748659800, 0.0000000000000000000 ) ) ;
#17 = MECHANICAL_DESIGN_GEOMETRIC_PRESENTATION_REPRESENTATION (  '', ( #345 ), #34 ) ;
#18 = CARTESIAN_POINT ( 'NONE',  ( 0.0000000000000000000, 0.01200000000000000500, 0.0000000000000000000 ) ) ;
#19 = DIRECTION ( 'NONE',  ( -0.0000000000000000000, -1.000000000000000000, -0.0000000000000000000 ) ) ;
#20 = CARTESIAN_POINT ( 'NONE',  ( 0.0000000000000000000, 0.0000000000000000000, 0.0000000000000000000 ) ) ;
#21 = ORIENTED_EDGE ( 'NONE', *, *, #147, .T. ) ;
#22 = DIRECTION ( 'NONE',  ( 0.0000000000000000000, 0.0000000000000000000, -1.000000000000000000 ) ) ;
#23 = CARTESIAN_POINT ( 'NONE',  ( 0.1560000000000000300, 5.802923211941786200E-018, 0.0000000000000000000 ) ) ;
#24 = AXIS2_PLACEMENT_3D ( 'NONE', #84, #79, #191 ) ;
#25 = EDGE_LOOP ( 'NONE', ( #340 ) ) ;
#26 = FACE_BOUND ( 'NONE', #330, .T. ) ;
#27 = SURFACE_SIDE_STYLE ('',( #347 ) ) ;
#28 = DIRECTION ( 'NONE',  ( 0.0000000000000000000, 0.0000000000000000000, 1.000000000000000000 ) ) ;
#29 = EDGE_LOOP ( 'NONE', ( #291 ) ) ;
#30 = EDGE_LOOP ( 'NONE', ( #277 ) ) ;
#31 = AXIS2_PLACEMENT_3D ( 'NONE', #262, #118, #28 ) ;
#32 = FILL_AREA_STYLE ('',( #117 ) ) ;
#33 = CIRCLE ( 'NONE', #316, 0.09100562686432399400 ) ;
#34 =( GEOMETRIC_REPRESENTATION_CONTEXT ( 3 ) GLOBAL_UNCERTAINTY_ASSIGNED_CONTEXT ( ( #309 ) ) GLOBAL_UNIT_ASSIGNED_CONTEXT ( ( #271, #42, #69 ) ) REPRESENTATION_CONTEXT ( 'NONE', 'WORKASPACE' ) );
#35 = ORIENTED_EDGE ( 'NONE', *, *, #116, .T. ) ;
#36 = EDGE_LOOP ( 'NONE', ( #320 ) ) ;
#37 = AXIS2_PLACEMENT_3D ( 'NONE', #190, #81, #53 ) ;
#38 = SURFACE_STYLE_USAGE ( .BOTH. , #179 ) ;
#39 = UNCERTAINTY_MEASURE_WITH_UNIT (LENGTH_MEASURE( 1.000000000000000100E-005 ), #224, 'distance_accuracy_value', 'NONE');
#40 = FILL_AREA_STYLE ('',( #350 ) ) ;
#41 = VERTEX_POINT ( 'NONE', #209 ) ;
#42 =( NAMED_UNIT ( * ) PLANE_ANGLE_UNIT ( ) SI_UNIT ( $, .RADIAN. ) );
#43 = CARTESIAN_POINT ( 'NONE',  ( 0.0000000000000000000, 0.1234905639748659800, -0.09953590305862593200 ) ) ;
#44 = CARTESIAN_POINT ( 'NONE',  ( 0.0000000000000000000, 0.1227763569716702200, 0.0000000000000000000 ) ) ;
#45 = CARTESIAN_POINT ( 'NONE',  ( 0.0000000000000000000, 0.05287257865376272800, 0.0000000000000000000 ) ) ;
#46 = ORIENTED_EDGE ( 'NONE', *, *, #9, .F. ) ;
#47 = EDGE_LOOP ( 'NONE', ( #96 ) ) ;
#48 = DIRECTION ( 'NONE',  ( -0.0000000000000000000, -1.000000000000000000, -0.0000000000000000000 ) ) ;
#49 = DIRECTION ( 'NONE',  ( -0.0000000000000000000, -1.000000000000000000, -0.0000000000000000000 ) ) ;
#50 = DIRECTION ( 'NONE',  ( -0.0000000000000000000, -1.000000000000000000, -0.0000000000000000000 ) ) ;
#51 = DIRECTION ( 'NONE',  ( 0.0000000000000000000, 0.0000000000000000000, -1.000000000000000000 ) ) ;
#52 = AXIS2_PLACEMENT_3D ( 'NONE', #60, #195, #88 ) ;
#53 = DIRECTION ( 'NONE',  ( 0.0000000000000000000, -0.0000000000000000000, 1.000000000000000000 ) ) ;
#54 = CARTESIAN_POINT ( 'NONE',  ( 0.0000000000000000000, 0.01684489069633456100, 0.0000000000000000000 ) ) ;
#55 = VERTEX_POINT ( 'NONE', #272 ) ;
#56 = SURFACE_STYLE_USAGE ( .BOTH. , #27 ) ;
#57 = EDGE_LOOP ( 'NONE', ( #21 ) ) ;
#58 = FACE_OUTER_BOUND ( 'NONE', #155, .T. ) ;
#59 =( LENGTH_UNIT ( ) NAMED_UNIT ( * ) SI_UNIT ( $, .METRE. ) );
#60 = CARTESIAN_POINT ( 'NONE',  ( 0.0000000000000000000, 0.1234905639748659800, 0.0000000000000000000 ) ) ;
#61 = AXIS2_PLACEMENT_3D ( 'NONE', #45, #256, #358 ) ;
#62 = FACE_OUTER_BOUND ( 'NONE', #252, .T. ) ;
#63 = VERTEX_POINT ( 'NONE', #43 ) ;
#64 = PRESENTATION_STYLE_ASSIGNMENT (( #38 ) ) ;
#65 = EDGE_LOOP ( 'NONE', ( #12 ) ) ;
#66 = AXIS2_PLACEMENT_3D ( 'NONE', #44, #308, #51 ) ;
#67 = CIRCLE ( 'NONE', #286, 0.1560000000000000300 ) ;
#68 = ORIENTED_EDGE ( 'NONE', *, *, #201, .F. ) ;
#69 =( NAMED_UNIT ( * ) SI_UNIT ( $, .STERADIAN. ) SOLID_ANGLE_UNIT ( ) );
#70 = CARTESIAN_POINT ( 'NONE',  ( 0.0000000000000000000, 0.1247146395077804600, -0.07900562686432399700 ) ) ;
#71 = CARTESIAN_POINT ( 'NONE',  ( 0.0000000000000000000, 0.01271420700319584800, -0.09293109039507023400 ) ) ;
#72 = CIRCLE ( 'NONE', #97, 0.09953590305862593200 ) ;
#73 = PRESENTATION_STYLE_ASSIGNMENT (( #56 ) ) ;
#74 = DIRECTION ( 'NONE',  ( -0.0000000000000000000, -1.000000000000000000, -0.0000000000000000000 ) ) ;
#75 = CARTESIAN_POINT ( 'NONE',  ( 0.0000000000000000000, 0.05287257865376273500, 0.0000000000000000000 ) ) ;
#76 = DIRECTION ( 'NONE',  ( 0.0000000000000000000, 0.0000000000000000000, -1.000000000000000000 ) ) ;
#77 = CARTESIAN_POINT ( 'NONE',  ( 0.0000000000000000000, 2.134256245050205600E-018, 0.0000000000000000000 ) ) ;
#78 = ADVANCED_FACE ( 'NONE', ( #199, #244 ), #221, .F. ) ;
#79 = DIRECTION ( 'NONE',  ( -0.0000000000000000000, -1.000000000000000000, -0.0000000000000000000 ) ) ;
#80 = CIRCLE ( 'NONE', #92, 0.07900562686432399700 ) ;
#81 = DIRECTION ( 'NONE',  ( 0.0000000000000000000, 1.000000000000000000, 0.0000000000000000000 ) ) ;
#82 = AXIS2_PLACEMENT_3D ( 'NONE', #165, #335, #278 ) ;
#83 = PRODUCT ( '261', '261', '', ( #152 ) ) ;
#84 = CARTESIAN_POINT ( 'NONE',  ( 0.0000000000000000000, 0.01683157393116397100, 0.0000000000000000000 ) ) ;
#85 = FACE_OUTER_BOUND ( 'NONE', #282, .T. ) ;
#86 = EDGE_LOOP ( 'NONE', ( #242 ) ) ;
#87 = TOROIDAL_SURFACE ( 'NONE', #140, 0.09526012862459866400, 0.01628336765758913200 ) ;
#88 = DIRECTION ( 'NONE',  ( 0.0000000000000000000, 0.0000000000000000000, 1.000000000000000000 ) ) ;
#89 = DIRECTION ( 'NONE',  ( 0.0000000000000000000, 0.0000000000000000000, -1.000000000000000000 ) ) ;
#90 = FACE_OUTER_BOUND ( 'NONE', #29, .T. ) ;
#91 = ORIENTED_EDGE ( 'NONE', *, *, #182, .F. ) ;
#92 = AXIS2_PLACEMENT_3D ( 'NONE', #75, #214, #248 ) ;
#93 = EDGE_CURVE ( 'NONE', #337, #337, #311, .T. ) ;
#94 = FACE_OUTER_BOUND ( 'NONE', #30, .T. ) ;
#95 = ORIENTED_EDGE ( 'NONE', *, *, #177, .F. ) ;
#96 = ORIENTED_EDGE ( 'NONE', *, *, #116, .F. ) ;
#97 = AXIS2_PLACEMENT_3D ( 'NONE', #16, #109, #328 ) ;
#98 =( LENGTH_UNIT ( ) NAMED_UNIT ( * ) SI_UNIT ( $, .METRE. ) );
#99 = FACE_OUTER_BOUND ( 'NONE', #47, .T. ) ;
#100 = CIRCLE ( 'NONE', #5, 0.1560000000000000300 ) ;
#101 = CARTESIAN_POINT ( 'NONE',  ( 0.0000000000000000000, 0.01200000000000001100, -0.1560000000000000300 ) ) ;
#102 = CARTESIAN_POINT ( 'NONE',  ( 0.0000000000000000000, 0.0000000000000000000, 0.0000000000000000000 ) ) ;
#103 = DIRECTION ( 'NONE',  ( 0.0000000000000000000, 0.0000000000000000000, -1.000000000000000000 ) ) ;
#104 = ADVANCED_FACE ( 'NONE', ( #122, #334 ), #128, .F. ) ;
#105 = DIRECTION ( 'NONE',  ( -0.0000000000000000000, -1.000000000000000000, -0.0000000000000000000 ) ) ;
#106 = CARTESIAN_POINT ( 'NONE',  ( 0.0000000000000000000, 0.03658637519022551300, 0.0000000000000000000 ) ) ;
#107 = EDGE_LOOP ( 'NONE', ( #35 ) ) ;
#108 = APPLICATION_PROTOCOL_DEFINITION ( 'draft international standard', 'automotive_design', 1998, #281 ) ;
#109 = DIRECTION ( 'NONE',  ( -0.0000000000000000000, -1.000000000000000000, -0.0000000000000000000 ) ) ;
#110 = AXIS2_PLACEMENT_3D ( 'NONE', #111, #258, #273 ) ;
#111 = CARTESIAN_POINT ( 'NONE',  ( 0.0000000000000000000, 0.1237454982397253500, 0.0000000000000000000 ) ) ;
#112 = UNCERTAINTY_MEASURE_WITH_UNIT (LENGTH_MEASURE( 1.000000000000000100E-005 ), #207, 'distance_accuracy_value', 'NONE');
#113 = EDGE_LOOP ( 'NONE', ( #68 ) ) ;
#114 = SURFACE_STYLE_FILL_AREA ( #40 ) ;
#115 = FACE_OUTER_BOUND ( 'NONE', #57, .T. ) ;
#116 = EDGE_CURVE ( 'NONE', #266, #266, #80, .T. ) ;
#117 = FILL_AREA_STYLE_COLOUR ( '', #188 ) ;
#118 = DIRECTION ( 'NONE',  ( 0.0000000000000000000, 1.000000000000000000, 0.0000000000000000000 ) ) ;
#119 = ORIENTED_EDGE ( 'NONE', *, *, #177, .T. ) ;
#120 = EDGE_LOOP ( 'NONE', ( #318 ) ) ;
#121 = AXIS2_PLACEMENT_3D ( 'NONE', #300, #138, #159 ) ;
#122 = FACE_OUTER_BOUND ( 'NONE', #120, .T. ) ;
#123 = VERTEX_POINT ( 'NONE', #101 ) ;
#124 = ORIENTED_EDGE ( 'NONE', *, *, #268, .F. ) ;
#125 = EDGE_LOOP ( 'NONE', ( #95 ) ) ;
#126 = AXIS2_PLACEMENT_3D ( 'NONE', #54, #218, #22 ) ;
#127 =( NAMED_UNIT ( * ) SI_UNIT ( $, .STERADIAN. ) SOLID_ANGLE_UNIT ( ) );
#128 = TOROIDAL_SURFACE ( 'NONE', #110, 0.09526012862459866400, 0.004283367657589131300 ) ;
#129 = VERTEX_POINT ( 'NONE', #70 ) ;
#130 = LENGTH_MEASURE_WITH_UNIT ( LENGTH_MEASURE( 0.02539999999999999900 ), #295 );
#131 = EDGE_CURVE ( 'NONE', #180, #180, #361, .T. ) ;
#132 = PRODUCT_DEFINITION_SHAPE ( 'NONE', 'NONE',  #227 ) ;
#133 = DIRECTION ( 'NONE',  ( 0.0000000000000000000, -1.000000000000000000, -0.0000000000000000000 ) ) ;
#134 = DIRECTION ( 'NONE',  ( 0.0000000000000000000, 0.0000000000000000000, -1.000000000000000000 ) ) ;
#135 = EDGE_LOOP ( 'NONE', ( #91 ) ) ;
#136 = DIRECTION ( 'NONE',  ( -0.0000000000000000000, -1.000000000000000000, -0.0000000000000000000 ) ) ;
#137 = DIRECTION ( 'NONE',  ( 0.0000000000000000000, 0.0000000000000000000, -1.000000000000000000 ) ) ;
#138 = DIRECTION ( 'NONE',  ( -0.0000000000000000000, -1.000000000000000000, -0.0000000000000000000 ) ) ;
#139 = DIRECTION ( 'NONE',  ( -0.0000000000000000000, -1.000000000000000000, -0.0000000000000000000 ) ) ;
#140 = AXIS2_PLACEMENT_3D ( 'NONE', #192, #139, #134 ) ;
#141 = VERTEX_POINT ( 'NONE', #245 ) ;
#142 =( NAMED_UNIT ( * ) SI_UNIT ( $, .STERADIAN. ) SOLID_ANGLE_UNIT ( ) );
#143 = AXIS2_PLACEMENT_3D ( 'NONE', #356, #105, #164 ) ;
#144 = FACE_BOUND ( 'NONE', #149, .T. ) ;
#145 = CYLINDRICAL_SURFACE ( 'NONE', #293, 0.1560000000000000300 ) ;
#146 = PRODUCT_DEFINITION_CONTEXT ( 'detailed design', #281, 'design' ) ;
#147 = EDGE_CURVE ( 'NONE', #129, #129, #178, .T. ) ;
#148 = FACE_OUTER_BOUND ( 'NONE', #187, .T. ) ;
#149 = EDGE_LOOP ( 'NONE', ( #124 ) ) ;
#150 = AXIS2_PLACEMENT_3D ( 'NONE', #329, #19, #302 ) ;
#151 = CARTESIAN_POINT ( 'NONE',  ( 0.0000000000000000000, 0.005000000000000000100, -0.04825000000000000100 ) ) ;
#152 = PRODUCT_CONTEXT ( 'NONE', #208, 'mechanical' ) ;
#153 = CARTESIAN_POINT ( 'NONE',  ( 0.0000000000000000000, 0.05287257865376273500, -0.09100562686432400700 ) ) ;
#154 = FACE_OUTER_BOUND ( 'NONE', #236, .T. ) ;
#155 = EDGE_LOOP ( 'NONE', ( #167 ) ) ;
#156 = FACE_OUTER_BOUND ( 'NONE', #259, .T. ) ;
#157 = AXIS2_PLACEMENT_3D ( 'NONE', #23, #133, #327 ) ;
#158 = DIRECTION ( 'NONE',  ( -0.0000000000000000000, -1.000000000000000000, -0.0000000000000000000 ) ) ;
#159 = DIRECTION ( 'NONE',  ( 0.0000000000000000000, 0.0000000000000000000, -1.000000000000000000 ) ) ;
#160 = DIRECTION ( 'NONE',  ( -0.0000000000000000000, -1.000000000000000000, -0.0000000000000000000 ) ) ;
#161 = DIRECTION ( 'NONE',  ( -0.0000000000000000000, -1.000000000000000000, -0.0000000000000000000 ) ) ;
#162 = FACE_BOUND ( 'NONE', #315, .T. ) ;
#163 = FACE_OUTER_BOUND ( 'NONE', #298, .T. ) ;
#164 = DIRECTION ( 'NONE',  ( 0.0000000000000000000, 0.0000000000000000000, -1.000000000000000000 ) ) ;
#165 = CARTESIAN_POINT ( 'NONE',  ( 0.0000000000000000000, 0.01684489069633456100, 0.0000000000000000000 ) ) ;
#166 = FACE_OUTER_BOUND ( 'NONE', #107, .T. ) ;
#167 = ORIENTED_EDGE ( 'NONE', *, *, #301, .F. ) ;
#168 = ORIENTED_EDGE ( 'NONE', *, *, #263, .T. ) ;
#169 = EDGE_CURVE ( 'NONE', #55, #55, #33, .T. ) ;
#170 = DIRECTION ( 'NONE',  ( 0.0000000000000000000, 0.0000000000000000000, -1.000000000000000000 ) ) ;
#171 = CARTESIAN_POINT ( 'NONE',  ( 0.0000000000000000000, 9.471590178833366700E-018, 0.0000000000000000000 ) ) ;
#172 = ORIENTED_EDGE ( 'NONE', *, *, #268, .T. ) ;
#173 = AXIS2_PLACEMENT_3D ( 'NONE', #352, #185, #14 ) ;
#174 = TOROIDAL_SURFACE ( 'NONE', #211, 0.05337844053707423200, 0.02000000000000000000 ) ;
#175 = CIRCLE ( 'NONE', #24, 0.07855278913271777900 ) ;
#176 = AXIS2_PLACEMENT_3D ( 'NONE', #183, #355, #276 ) ;
#177 = EDGE_CURVE ( 'NONE', #343, #343, #6, .T. ) ;
#178 = CIRCLE ( 'NONE', #143, 0.07900562686432399700 ) ;
#179 = SURFACE_SIDE_STYLE ('',( #114 ) ) ;
#180 = VERTEX_POINT ( 'NONE', #240 ) ;
#181 = ORIENTED_EDGE ( 'NONE', *, *, #251, .T. ) ;
#182 = EDGE_CURVE ( 'NONE', #270, #270, #243, .T. ) ;
#183 = CARTESIAN_POINT ( 'NONE',  ( 0.0000000000000000000, 0.05287257865376272800, 0.0000000000000000000 ) ) ;
#184 = ADVANCED_FACE ( 'NONE', ( #162, #348 ), #280, .T. ) ;
#185 = DIRECTION ( 'NONE',  ( -0.0000000000000000000, -1.000000000000000000, -0.0000000000000000000 ) ) ;
#186 = CARTESIAN_POINT ( 'NONE',  ( 0.0000000000000000000, 0.0000000000000000000, 0.0000000000000000000 ) ) ;
#187 = EDGE_LOOP ( 'NONE', ( #197 ) ) ;
#188 = COLOUR_RGB ( '',0.9882352941176471000, 1.000000000000000000, 0.9882352941176471000 ) ;
#189 = DIRECTION ( 'NONE',  ( 0.0000000000000000000, 0.0000000000000000000, -1.000000000000000000 ) ) ;
#190 = CARTESIAN_POINT ( 'NONE',  ( 0.1560000000000000300, 0.01200000000000000500, 0.0000000000000000000 ) ) ;
#191 = DIRECTION ( 'NONE',  ( 0.0000000000000000000, 0.0000000000000000000, -1.000000000000000000 ) ) ;
#192 = CARTESIAN_POINT ( 'NONE',  ( 0.0000000000000000000, 0.1237454982397253500, 0.0000000000000000000 ) ) ;
#193 = VERTEX_POINT ( 'NONE', #351 ) ;
#194 = AXIS2_PLACEMENT_3D ( 'NONE', #18, #136, #76 ) ;
#195 = DIRECTION ( 'NONE',  ( 0.0000000000000000000, 1.000000000000000000, 0.0000000000000000000 ) ) ;
#196 = ADVANCED_FACE ( 'NONE', ( #3, #99 ), #241, .F. ) ;
#197 = ORIENTED_EDGE ( 'NONE', *, *, #1, .T. ) ;
#198 = FACE_OUTER_BOUND ( 'NONE', #25, .T. ) ;
#199 = FACE_BOUND ( 'NONE', #284, .T. ) ;
#200 = VERTEX_POINT ( 'NONE', #323 ) ;
#201 = EDGE_CURVE ( 'NONE', #193, #193, #175, .T. ) ;
#202 = ORIENTED_EDGE ( 'NONE', *, *, #131, .T. ) ;
#203 = DIMENSIONAL_EXPONENTS ( 1.000000000000000000, 0.0000000000000000000, 0.0000000000000000000, 0.0000000000000000000, 0.0000000000000000000, 0.0000000000000000000, 0.0000000000000000000 ) ;
#204 = FACE_OUTER_BOUND ( 'NONE', #113, .T. ) ;
#205 = AXIS2_PLACEMENT_3D ( 'NONE', #102, #294, #239 ) ;
#206 = AXIS2_PLACEMENT_3D ( 'NONE', #216, #48, #249 ) ;
#207 =( CONVERSION_BASED_UNIT ( 'INCH', #223 ) LENGTH_UNIT ( ) NAMED_UNIT ( #228 ) );
#208 = APPLICATION_CONTEXT ( 'automotive_design' ) ;
#209 = CARTESIAN_POINT ( 'NONE',  ( 0.0000000000000000000, 9.471590178833366700E-018, -0.1560000000000000300 ) ) ;
#210 = EDGE_LOOP ( 'NONE', ( #342 ) ) ;
#211 = AXIS2_PLACEMENT_3D ( 'NONE', #279, #50, #212 ) ;
#212 = DIRECTION ( 'NONE',  ( 0.0000000000000000000, 0.0000000000000000000, -1.000000000000000000 ) ) ;
#213 = CIRCLE ( 'NONE', #206, 0.04825000000000000100 ) ;
#214 = DIRECTION ( 'NONE',  ( -0.0000000000000000000, -1.000000000000000000, -0.0000000000000000000 ) ) ;
#215 = ADVANCED_FACE ( 'NONE', ( #26, #163 ), #324, .F. ) ;
#216 = CARTESIAN_POINT ( 'NONE',  ( 0.0000000000000000000, 0.005000000000000000100, 0.0000000000000000000 ) ) ;
#217 = DIRECTION ( 'NONE',  ( 0.0000000000000000000, 0.0000000000000000000, -1.000000000000000000 ) ) ;
#218 = DIRECTION ( 'NONE',  ( -0.0000000000000000000, -1.000000000000000000, -0.0000000000000000000 ) ) ;
#219 = CARTESIAN_POINT ( 'NONE',  ( 0.0000000000000000000, 0.05287257865376273500, 0.0000000000000000000 ) ) ;
#220 = TOROIDAL_SURFACE ( 'NONE', #194, 0.1049098177213176300, 0.01200000000000000400 ) ;
#221 = CONICAL_SURFACE ( 'NONE', #52, 0.09953590305862593200, 0.05955244441913414000 ) ;
#222 = ORIENTED_EDGE ( 'NONE', *, *, #182, .T. ) ;
#223 = LENGTH_MEASURE_WITH_UNIT ( LENGTH_MEASURE( 0.02539999999999999900 ), #98 );
#224 =( CONVERSION_BASED_UNIT ( 'INCH', #288 ) LENGTH_UNIT ( ) NAMED_UNIT ( #233 ) );
#225 = FACE_OUTER_BOUND ( 'NONE', #321, .T. ) ;
#226 = DIRECTION ( 'NONE',  ( -0.0000000000000000000, -1.000000000000000000, -0.0000000000000000000 ) ) ;
#227 = PRODUCT_DEFINITION ( 'UNKNOWN', '', #257, #146 ) ;
#228 = DIMENSIONAL_EXPONENTS ( 1.000000000000000000, 0.0000000000000000000, 0.0000000000000000000, 0.0000000000000000000, 0.0000000000000000000, 0.0000000000000000000, 0.0000000000000000000 ) ;
#229 = FACE_OUTER_BOUND ( 'NONE', #135, .T. ) ;
#230 = ORIENTED_EDGE ( 'NONE', *, *, #93, .T. ) ;
#231 = FACE_OUTER_BOUND ( 'NONE', #210, .T. ) ;
#232 = AXIS2_PLACEMENT_3D ( 'NONE', #106, #254, #246 ) ;
#233 = DIMENSIONAL_EXPONENTS ( 1.000000000000000000, 0.0000000000000000000, 0.0000000000000000000, 0.0000000000000000000, 0.0000000000000000000, 0.0000000000000000000, 0.0000000000000000000 ) ;
#234 = EDGE_CURVE ( 'NONE', #63, #63, #72, .T. ) ;
#235 = TOROIDAL_SURFACE ( 'NONE', #232, 0.05337844053707423200, 0.03200000000000000100 ) ;
#236 = EDGE_LOOP ( 'NONE', ( #222 ) ) ;
#237 =( NAMED_UNIT ( * ) PLANE_ANGLE_UNIT ( ) SI_UNIT ( $, .RADIAN. ) );
#238 = ADVANCED_BREP_SHAPE_REPRESENTATION ( '261', ( #8, #205 ), #261 ) ;
#239 = DIRECTION ( 'NONE',  ( 1.000000000000000000, 0.0000000000000000000, 0.0000000000000000000 ) ) ;
#240 = CARTESIAN_POINT ( 'NONE',  ( 0.0000000000000000000, 0.01684489069633456100, -0.05017316520140285800 ) ) ;
#241 = TOROIDAL_SURFACE ( 'NONE', #61, 0.03262426751786462500, 0.04638135934645937900 ) ;
#242 = ORIENTED_EDGE ( 'NONE', *, *, #234, .F. ) ;
#243 = CIRCLE ( 'NONE', #346, 0.09100562686432400700 ) ;
#244 = FACE_OUTER_BOUND ( 'NONE', #86, .T. ) ;
#245 = CARTESIAN_POINT ( 'NONE',  ( 0.0000000000000000000, 0.02423962440331205500, -0.06911240840935145600 ) ) ;
#246 = DIRECTION ( 'NONE',  ( 0.0000000000000000000, 0.0000000000000000000, -1.000000000000000000 ) ) ;
#247 = ADVANCED_FACE ( 'NONE', ( #115, #231 ), #87, .T. ) ;
#248 = DIRECTION ( 'NONE',  ( 0.0000000000000000000, 0.0000000000000000000, -1.000000000000000000 ) ) ;
#249 = DIRECTION ( 'NONE',  ( 0.0000000000000000000, 0.0000000000000000000, -1.000000000000000000 ) ) ;
#250 = DIRECTION ( 'NONE',  ( -0.0000000000000000000, -1.000000000000000000, -0.0000000000000000000 ) ) ;
#251 = EDGE_CURVE ( 'NONE', #141, #141, #325, .T. ) ;
#252 = EDGE_LOOP ( 'NONE', ( #230 ) ) ;
#253 = EDGE_LOOP ( 'NONE', ( #119 ) ) ;
#254 = DIRECTION ( 'NONE',  ( -0.0000000000000000000, -1.000000000000000000, -0.0000000000000000000 ) ) ;
#255 = FACE_BOUND ( 'NONE', #125, .T. ) ;
#256 = DIRECTION ( 'NONE',  ( -0.0000000000000000000, -1.000000000000000000, -0.0000000000000000000 ) ) ;
#257 = PRODUCT_DEFINITION_FORMATION_WITH_SPECIFIED_SOURCE ( 'ANY', '', #83, .NOT_KNOWN. ) ;
#258 = DIRECTION ( 'NONE',  ( -0.0000000000000000000, -1.000000000000000000, -0.0000000000000000000 ) ) ;
#259 = EDGE_LOOP ( 'NONE', ( #46 ) ) ;
#260 = FACE_OUTER_BOUND ( 'NONE', #36, .T. ) ;
#261 =( GEOMETRIC_REPRESENTATION_CONTEXT ( 3 ) GLOBAL_UNCERTAINTY_ASSIGNED_CONTEXT ( ( #112 ) ) GLOBAL_UNIT_ASSIGNED_CONTEXT ( ( #207, #237, #127 ) ) REPRESENTATION_CONTEXT ( 'NONE', 'WORKASPACE' ) );
#262 = CARTESIAN_POINT ( 'NONE',  ( 0.0000000000000000000, 0.01200000000000000400, 0.0000000000000000000 ) ) ;
#263 = EDGE_CURVE ( 'NONE', #349, #349, #11, .T. ) ;
#264 = EDGE_LOOP ( 'NONE', ( #181 ) ) ;
#265 = ORIENTED_EDGE ( 'NONE', *, *, #169, .F. ) ;
#266 = VERTEX_POINT ( 'NONE', #13 ) ;
#267 = ORIENTED_EDGE ( 'NONE', *, *, #131, .F. ) ;
#268 = EDGE_CURVE ( 'NONE', #200, #200, #314, .T. ) ;
#269 = PRODUCT_RELATED_PRODUCT_CATEGORY ( 'part', '', ( #83 ) ) ;
#270 = VERTEX_POINT ( 'NONE', #153 ) ;
#271 =( CONVERSION_BASED_UNIT ( 'INCH', #130 ) LENGTH_UNIT ( ) NAMED_UNIT ( #203 ) );
#272 = CARTESIAN_POINT ( 'NONE',  ( 0.0000000000000000000, 0.1242419388322441000, -0.09100562686432399400 ) ) ;
#273 = DIRECTION ( 'NONE',  ( 0.0000000000000000000, 0.0000000000000000000, -1.000000000000000000 ) ) ;
#274 = CARTESIAN_POINT ( 'NONE',  ( 0.0000000000000000000, 0.0000000000000000000, 0.0000000000000000000 ) ) ;
#275 = AXIS2_PLACEMENT_3D ( 'NONE', #20, #158, #303 ) ;
#276 = DIRECTION ( 'NONE',  ( 0.0000000000000000000, 0.0000000000000000000, -1.000000000000000000 ) ) ;
#277 = ORIENTED_EDGE ( 'NONE', *, *, #201, .T. ) ;
#278 = DIRECTION ( 'NONE',  ( 0.0000000000000000000, 0.0000000000000000000, 1.000000000000000000 ) ) ;
#279 = CARTESIAN_POINT ( 'NONE',  ( 0.0000000000000000000, 0.03658637519022551300, 0.0000000000000000000 ) ) ;
#280 = PLANE ( 'NONE',  #37 ) ;
#281 = APPLICATION_CONTEXT ( 'automotive_design' ) ;
#282 = EDGE_LOOP ( 'NONE', ( #353 ) ) ;
#283 = VERTEX_POINT ( 'NONE', #151 ) ;
#284 = EDGE_LOOP ( 'NONE', ( #168 ) ) ;
#285 = EDGE_LOOP ( 'NONE', ( #265 ) ) ;
#286 = AXIS2_PLACEMENT_3D ( 'NONE', #287, #226, #89 ) ;
#287 = CARTESIAN_POINT ( 'NONE',  ( 0.0000000000000000000, 0.01200000000000001100, 0.0000000000000000000 ) ) ;
#288 = LENGTH_MEASURE_WITH_UNIT ( LENGTH_MEASURE( 0.02539999999999999900 ), #59 );
#289 = CYLINDRICAL_SURFACE ( 'NONE', #313, 0.07900562686432399700 ) ;
#290 = ADVANCED_FACE ( 'NONE', ( #90, #255 ), #307, .T. ) ;
#291 = ORIENTED_EDGE ( 'NONE', *, *, #9, .T. ) ;
#292 = SHAPE_DEFINITION_REPRESENTATION ( #132, #238 ) ;
#293 = AXIS2_PLACEMENT_3D ( 'NONE', #186, #160, #189 ) ;
#294 = DIRECTION ( 'NONE',  ( 0.0000000000000000000, 0.0000000000000000000, 1.000000000000000000 ) ) ;
#295 =( LENGTH_UNIT ( ) NAMED_UNIT ( * ) SI_UNIT ( $, .METRE. ) );
#296 = CARTESIAN_POINT ( 'NONE',  ( 0.0000000000000000000, 0.1227763569716702200, -0.1115146303848733300 ) ) ;
#297 = FACE_OUTER_BOUND ( 'NONE', #344, .T. ) ;
#298 = EDGE_LOOP ( 'NONE', ( #267 ) ) ;
#299 = FACE_OUTER_BOUND ( 'NONE', #253, .T. ) ;
#300 = CARTESIAN_POINT ( 'NONE',  ( 0.0000000000000000000, 0.02423962440331205500, 0.0000000000000000000 ) ) ;
#301 = EDGE_CURVE ( 'NONE', #283, #283, #213, .T. ) ;
#302 = DIRECTION ( 'NONE',  ( 0.0000000000000000000, 0.0000000000000000000, -1.000000000000000000 ) ) ;
#303 = DIRECTION ( 'NONE',  ( 0.0000000000000000000, 0.0000000000000000000, -1.000000000000000000 ) ) ;
#304 = STYLED_ITEM ( 'NONE', ( #73 ), #8 ) ;
#305 = ADVANCED_FACE ( 'NONE', ( #299, #85 ), #220, .T. ) ;
#306 = CONICAL_SURFACE ( 'NONE', #31, 0.1049098177213176300, 0.05955244441913409800 ) ;
#307 = PLANE ( 'NONE',  #157 ) ;
#308 = DIRECTION ( 'NONE',  ( -0.0000000000000000000, -1.000000000000000000, -0.0000000000000000000 ) ) ;
#309 = UNCERTAINTY_MEASURE_WITH_UNIT (LENGTH_MEASURE( 1.000000000000000100E-005 ), #271, 'distance_accuracy_value', 'NONE');
#310 = ORIENTED_EDGE ( 'NONE', *, *, #301, .T. ) ;
#311 = CIRCLE ( 'NONE', #66, 0.1115146303848733300 ) ;
#312 = DIRECTION ( 'NONE',  ( -0.0000000000000000000, -1.000000000000000000, -0.0000000000000000000 ) ) ;
#313 = AXIS2_PLACEMENT_3D ( 'NONE', #274, #74, #103 ) ;
#314 = CIRCLE ( 'NONE', #173, 0.1049098177213176300 ) ;
#315 = EDGE_LOOP ( 'NONE', ( #172 ) ) ;
#316 = AXIS2_PLACEMENT_3D ( 'NONE', #359, #250, #217 ) ;
#317 = TOROIDAL_SURFACE ( 'NONE', #176, 0.03262426751786462500, 0.05838135934645937600 ) ;
#318 = ORIENTED_EDGE ( 'NONE', *, *, #234, .T. ) ;
#319 = ADVANCED_FACE ( 'NONE', ( #225, #260 ), #174, .F. ) ;
#320 = ORIENTED_EDGE ( 'NONE', *, *, #251, .F. ) ;
#321 = EDGE_LOOP ( 'NONE', ( #202 ) ) ;
#322 = PRESENTATION_LAYER_ASSIGNMENT (  '', '', ( #304 ) ) ;
#323 = CARTESIAN_POINT ( 'NONE',  ( 0.0000000000000000000, 0.01200000000000000400, -0.1049098177213176300 ) ) ;
#324 = CONICAL_SURFACE ( 'NONE', #82, 0.05017316520140285800, 0.1609578679782839900 ) ;
#325 = CIRCLE ( 'NONE', #121, 0.06911240840935145600 ) ;
#326 = CARTESIAN_POINT ( 'NONE',  ( 0.0000000000000000000, 2.134256245050205600E-018, -0.1049098177213177200 ) ) ;
#327 = DIRECTION ( 'NONE',  ( 0.0000000000000000000, 0.0000000000000000000, -1.000000000000000000 ) ) ;
#328 = DIRECTION ( 'NONE',  ( 0.0000000000000000000, 0.0000000000000000000, -1.000000000000000000 ) ) ;
#329 = CARTESIAN_POINT ( 'NONE',  ( 0.0000000000000000000, 0.01271420700319584800, 0.0000000000000000000 ) ) ;
#330 = EDGE_LOOP ( 'NONE', ( #310 ) ) ;
#331 = DIRECTION ( 'NONE',  ( 0.0000000000000000000, 0.0000000000000000000, -1.000000000000000000 ) ) ;
#332 = ADVANCED_FACE ( 'NONE', ( #94, #58 ), #235, .T. ) ;
#333 = AXIS2_PLACEMENT_3D ( 'NONE', #77, #49, #331 ) ;
#334 = FACE_OUTER_BOUND ( 'NONE', #285, .T. ) ;
#335 = DIRECTION ( 'NONE',  ( 0.0000000000000000000, 1.000000000000000000, 0.0000000000000000000 ) ) ;
#336 = ADVANCED_FACE ( 'NONE', ( #198, #229 ), #2, .T. ) ;
#337 = VERTEX_POINT ( 'NONE', #296 ) ;
#338 = ADVANCED_FACE ( 'NONE', ( #148, #156 ), #145, .T. ) ;
#339 =( NAMED_UNIT ( * ) PLANE_ANGLE_UNIT ( ) SI_UNIT ( $, .RADIAN. ) );
#340 = ORIENTED_EDGE ( 'NONE', *, *, #169, .T. ) ;
#341 = MECHANICAL_DESIGN_GEOMETRIC_PRESENTATION_REPRESENTATION (  '', ( #304 ), #357 ) ;
#342 = ORIENTED_EDGE ( 'NONE', *, *, #93, .F. ) ;
#343 = VERTEX_POINT ( 'NONE', #326 ) ;
#344 = EDGE_LOOP ( 'NONE', ( #4 ) ) ;
#345 = STYLED_ITEM ( 'NONE', ( #64 ), #238 ) ;
#346 = AXIS2_PLACEMENT_3D ( 'NONE', #219, #161, #137 ) ;
#347 = SURFACE_STYLE_FILL_AREA ( #32 ) ;
#348 = FACE_OUTER_BOUND ( 'NONE', #65, .T. ) ;
#349 = VERTEX_POINT ( 'NONE', #71 ) ;
#350 = FILL_AREA_STYLE_COLOUR ( '', #360 ) ;
#351 = CARTESIAN_POINT ( 'NONE',  ( 0.0000000000000000000, 0.01683157393116397100, -0.07855278913271777900 ) ) ;
#352 = CARTESIAN_POINT ( 'NONE',  ( 0.0000000000000000000, 0.01200000000000000400, 0.0000000000000000000 ) ) ;
#353 = ORIENTED_EDGE ( 'NONE', *, *, #263, .F. ) ;
#354 = ADVANCED_FACE ( 'NONE', ( #166, #297 ), #289, .F. ) ;
#355 = DIRECTION ( 'NONE',  ( -0.0000000000000000000, -1.000000000000000000, -0.0000000000000000000 ) ) ;
#356 = CARTESIAN_POINT ( 'NONE',  ( 0.0000000000000000000, 0.1247146395077804600, 0.0000000000000000000 ) ) ;
#357 =( GEOMETRIC_REPRESENTATION_CONTEXT ( 3 ) GLOBAL_UNCERTAINTY_ASSIGNED_CONTEXT ( ( #39 ) ) GLOBAL_UNIT_ASSIGNED_CONTEXT ( ( #224, #339, #142 ) ) REPRESENTATION_CONTEXT ( 'NONE', 'WORKASPACE' ) );
#358 = DIRECTION ( 'NONE',  ( 0.0000000000000000000, 0.0000000000000000000, -1.000000000000000000 ) ) ;
#359 = CARTESIAN_POINT ( 'NONE',  ( 0.0000000000000000000, 0.1242419388322441000, 0.0000000000000000000 ) ) ;
#360 = COLOUR_RGB ( '',0.9882352941176471000, 1.000000000000000000, 0.9882352941176471000 ) ;
#361 = CIRCLE ( 'NONE', #126, 0.05017316520140285800 ) ;
#362 = PRESENTATION_LAYER_ASSIGNMENT (  '', '', ( #345 ) ) ;
#363 = ADVANCED_FACE ( 'NONE', ( #154, #204 ), #317, .T. ) ;
ENDSEC;
END-ISO-10303-21;
