ISO-10303-21;
HEADER;
FILE_DESCRIPTION(('STEP AP214'),'1');
FILE_NAME('21-0248A_Q3-1_MXM','2023-07-10T07:57:27',(''),(''),'','','');
FILE_SCHEMA(('AUTOMOTIVE_DESIGN'));
ENDSEC;
DATA;
#1=SHAPE_DEFINITION_REPRESENTATION(#2,#3);
#2=PRODUCT_DEFINITION_SHAPE('',$,#4);
#3=SHAPE_REPRESENTATION('',(#188,#243,#299,#466,#19),#11);
#4=PRODUCT_DEFINITION('design','example product_definition',#6,#5);
#5=PRODUCT_DEFINITION_CONTEXT('3D Mechanical Parts',#10,'design');
#6=PRODUCT_DEFINITION_FORMATION('1.0','first version',#8);
#7=APPLICATION_PROTOCOL_DEFINITION('international standard','automotive_design',2003,#10);
#8=PRODUCT('product','part','',(#9));
#9=PRODUCT_CONTEXT('3D Mechanical Parts',#10,'mechanical');
#10=APPLICATION_CONTEXT('Core Data for Automotive Mechanical Design Process');
#11=(GEOMETRIC_REPRESENTATION_CONTEXT(3) GLOBAL_UNCERTAINTY_ASSIGNED_CONTEXT((#12)) GLOBAL_UNIT_ASSIGNED_CONTEXT((#13,#14,#18)) REPRESENTATION_CONTEXT('ID1','3D'));
#12=UNCERTAINTY_MEASURE_WITH_UNIT(LENGTH_MEASURE(1.E-005),#13,'DISTANCE_ACCURACY_VALUE','Maximum model space distance between geometric entities at asserted connectivities');
#13=(LENGTH_UNIT() NAMED_UNIT(*) SI_UNIT(.MILLI.,.METRE.));
#14=(CONVERSION_BASED_UNIT('degree',#16) NAMED_UNIT(#15) PLANE_ANGLE_UNIT());
#15=DIMENSIONAL_EXPONENTS(0.,0.,0.,0.,0.,0.,0.);
#16=MEASURE_WITH_UNIT(PLANE_ANGLE_MEASURE(0.01745329252),#17);
#17=(NAMED_UNIT(*) PLANE_ANGLE_UNIT() SI_UNIT($,.RADIAN.));
#18=(NAMED_UNIT(*) SI_UNIT($,.STERADIAN.) SOLID_ANGLE_UNIT());
#19=AXIS2_PLACEMENT_3D('',#20,#21,#22);
#20=CARTESIAN_POINT('',(0.0,0.0,0.0));
#21=DIRECTION('',(0.0,0.0,1.0));
#22=DIRECTION('',(1.0,0.0,0.0));
#25=MECHANICAL_DESIGN_GEOMETRIC_PRESENTATION_REPRESENTATION($,(#240,#241,#242,#295,#296,#297,#301,#350,#403,#434,#468,#499,#530,#583,#636,#689,#742,#795,#848,#901,#954,#1007),#11);
#26=PRODUCT_CATEGORY_RELATIONSHIP('','',#27,#28);
#27=PRODUCT_CATEGORY('part','');
#28=PRODUCT_RELATED_PRODUCT_CATEGORY('','',(#8));
#34=PRESENTATION_STYLE_ASSIGNMENT((#35,#40));
#35=SURFACE_STYLE_USAGE(.BOTH.,#36);
#36=SURFACE_SIDE_STYLE('',(#37));
#37=SURFACE_STYLE_FILL_AREA(#38);
#38=FILL_AREA_STYLE('',(#39));
#39=FILL_AREA_STYLE_COLOUR('',#41);
#40=CURVE_STYLE('',#42,POSITIVE_LENGTH_MEASURE(0.1),#41);
#41=COLOUR_RGB('Aluminum',0.725,0.725,0.725);
#42=DRAUGHTING_PRE_DEFINED_CURVE_FONT('continuous');
#43=PRESENTATION_STYLE_ASSIGNMENT((#44,#49));
#44=SURFACE_STYLE_USAGE(.BOTH.,#45);
#45=SURFACE_SIDE_STYLE('',(#46));
#46=SURFACE_STYLE_FILL_AREA(#47);
#47=FILL_AREA_STYLE('',(#48));
#48=FILL_AREA_STYLE_COLOUR('',#50);
#49=CURVE_STYLE('',#51,POSITIVE_LENGTH_MEASURE(0.1),#50);
#50=COLOUR_RGB('Black',0.196,0.196,0.196);
#51=DRAUGHTING_PRE_DEFINED_CURVE_FONT('continuous');
#52=PRESENTATION_STYLE_ASSIGNMENT((#53,#58));
#53=SURFACE_STYLE_USAGE(.BOTH.,#54);
#54=SURFACE_SIDE_STYLE('',(#55));
#55=SURFACE_STYLE_FILL_AREA(#56);
#56=FILL_AREA_STYLE('',(#57));
#57=FILL_AREA_STYLE_COLOUR('',#59);
#58=CURVE_STYLE('',#60,POSITIVE_LENGTH_MEASURE(0.1),#59);
#59=COLOUR_RGB('Pin1Axial',0.98,0.706,0.176);
#60=DRAUGHTING_PRE_DEFINED_CURVE_FONT('continuous');
#61=PRESENTATION_STYLE_ASSIGNMENT((#62,#67));
#62=SURFACE_STYLE_USAGE(.BOTH.,#63);
#63=SURFACE_SIDE_STYLE('',(#64));
#64=SURFACE_STYLE_FILL_AREA(#65);
#65=FILL_AREA_STYLE('',(#66));
#66=FILL_AREA_STYLE_COLOUR('',#68);
#67=CURVE_STYLE('',#69,POSITIVE_LENGTH_MEASURE(0.1),#68);
#68=COLOUR_RGB('HeatTab',0.588,0.588,0.588);
#69=DRAUGHTING_PRE_DEFINED_CURVE_FONT('continuous');
#70=PRESENTATION_STYLE_ASSIGNMENT((#71,#76));
#71=SURFACE_STYLE_USAGE(.BOTH.,#72);
#72=SURFACE_SIDE_STYLE('',(#73));
#73=SURFACE_STYLE_FILL_AREA(#74);
#74=FILL_AREA_STYLE('',(#75));
#75=FILL_AREA_STYLE_COLOUR('',#77);
#76=CURVE_STYLE('',#78,POSITIVE_LENGTH_MEASURE(0.1),#77);
#77=COLOUR_RGB('Gold',0.843,0.686,0.0);
#78=DRAUGHTING_PRE_DEFINED_CURVE_FONT('continuous');
#79=PRESENTATION_STYLE_ASSIGNMENT((#80,#85));
#80=SURFACE_STYLE_USAGE(.BOTH.,#81);
#81=SURFACE_SIDE_STYLE('',(#82));
#82=SURFACE_STYLE_FILL_AREA(#83);
#83=FILL_AREA_STYLE('',(#84));
#84=FILL_AREA_STYLE_COLOUR('',#86);
#85=CURVE_STYLE('',#87,POSITIVE_LENGTH_MEASURE(0.1),#86);
#86=COLOUR_RGB('Brown',0.459,0.345,0.176);
#87=DRAUGHTING_PRE_DEFINED_CURVE_FONT('continuous');
#88=PRESENTATION_STYLE_ASSIGNMENT((#89,#94));
#89=SURFACE_STYLE_USAGE(.BOTH.,#90);
#90=SURFACE_SIDE_STYLE('',(#91));
#91=SURFACE_STYLE_FILL_AREA(#92);
#92=FILL_AREA_STYLE('',(#93));
#93=FILL_AREA_STYLE_COLOUR('',#95);
#94=CURVE_STYLE('',#96,POSITIVE_LENGTH_MEASURE(0.1),#95);
#95=COLOUR_RGB('Tan',0.784,0.686,0.51);
#96=DRAUGHTING_PRE_DEFINED_CURVE_FONT('continuous');
#97=PRESENTATION_STYLE_ASSIGNMENT((#98,#103));
#98=SURFACE_STYLE_USAGE(.BOTH.,#99);
#99=SURFACE_SIDE_STYLE('',(#100));
#100=SURFACE_STYLE_FILL_AREA(#101);
#101=FILL_AREA_STYLE('',(#102));
#102=FILL_AREA_STYLE_COLOUR('',#104);
#103=CURVE_STYLE('',#105,POSITIVE_LENGTH_MEASURE(0.1),#104);
#104=COLOUR_RGB('Gray',0.431,0.431,0.431);
#105=DRAUGHTING_PRE_DEFINED_CURVE_FONT('continuous');
#106=PRESENTATION_STYLE_ASSIGNMENT((#107,#112));
#107=SURFACE_STYLE_USAGE(.BOTH.,#108);
#108=SURFACE_SIDE_STYLE('',(#109));
#109=SURFACE_STYLE_FILL_AREA(#110);
#110=FILL_AREA_STYLE('',(#111));
#111=FILL_AREA_STYLE_COLOUR('',#113);
#112=CURVE_STYLE('',#114,POSITIVE_LENGTH_MEASURE(0.1),#113);
#113=COLOUR_RGB('Red',0.6,0.0,0.0);
#114=DRAUGHTING_PRE_DEFINED_CURVE_FONT('continuous');
#115=PRESENTATION_STYLE_ASSIGNMENT((#116,#121));
#116=SURFACE_STYLE_USAGE(.BOTH.,#117);
#117=SURFACE_SIDE_STYLE('',(#118));
#118=SURFACE_STYLE_FILL_AREA(#119);
#119=FILL_AREA_STYLE('',(#120));
#120=FILL_AREA_STYLE_COLOUR('',#122);
#121=CURVE_STYLE('',#123,POSITIVE_LENGTH_MEASURE(0.1),#122);
#122=COLOUR_RGB('Blue',0.157,0.157,0.588);
#123=DRAUGHTING_PRE_DEFINED_CURVE_FONT('continuous');
#124=PRESENTATION_STYLE_ASSIGNMENT((#125,#130));
#125=SURFACE_STYLE_USAGE(.BOTH.,#126);
#126=SURFACE_SIDE_STYLE('',(#127));
#127=SURFACE_STYLE_FILL_AREA(#128);
#128=FILL_AREA_STYLE('',(#129));
#129=FILL_AREA_STYLE_COLOUR('',#131);
#130=CURVE_STYLE('',#132,POSITIVE_LENGTH_MEASURE(0.1),#131);
#131=COLOUR_RGB('Maroon',0.294,0.0,0.0);
#132=DRAUGHTING_PRE_DEFINED_CURVE_FONT('continuous');
#133=PRESENTATION_STYLE_ASSIGNMENT((#134,#139));
#134=SURFACE_STYLE_USAGE(.BOTH.,#135);
#135=SURFACE_SIDE_STYLE('',(#136));
#136=SURFACE_STYLE_FILL_AREA(#137);
#137=FILL_AREA_STYLE('',(#138));
#138=FILL_AREA_STYLE_COLOUR('',#140);
#139=CURVE_STYLE('',#141,POSITIVE_LENGTH_MEASURE(0.1),#140);
#140=COLOUR_RGB('Green',0.0,0.294,0.0);
#141=DRAUGHTING_PRE_DEFINED_CURVE_FONT('continuous');
#142=PRESENTATION_STYLE_ASSIGNMENT((#143,#148));
#143=SURFACE_STYLE_USAGE(.BOTH.,#144);
#144=SURFACE_SIDE_STYLE('',(#145));
#145=SURFACE_STYLE_FILL_AREA(#146);
#146=FILL_AREA_STYLE('',(#147));
#147=FILL_AREA_STYLE_COLOUR('',#149);
#148=CURVE_STYLE('',#150,POSITIVE_LENGTH_MEASURE(0.1),#149);
#149=COLOUR_RGB('Pin1',0.588,0.588,0.059);
#150=DRAUGHTING_PRE_DEFINED_CURVE_FONT('continuous');
#151=PRESENTATION_STYLE_ASSIGNMENT((#152,#157));
#152=SURFACE_STYLE_USAGE(.BOTH.,#153);
#153=SURFACE_SIDE_STYLE('',(#154));
#154=SURFACE_STYLE_FILL_AREA(#155);
#155=FILL_AREA_STYLE('',(#156));
#156=FILL_AREA_STYLE_COLOUR('',#158);
#157=CURVE_STYLE('',#159,POSITIVE_LENGTH_MEASURE(0.1),#158);
#158=COLOUR_RGB('Pin1Wrap',0.98,0.706,0.176);
#159=DRAUGHTING_PRE_DEFINED_CURVE_FONT('continuous');
#160=PRESENTATION_STYLE_ASSIGNMENT((#161,#166));
#161=SURFACE_STYLE_USAGE(.BOTH.,#162);
#162=SURFACE_SIDE_STYLE('',(#163));
#163=SURFACE_STYLE_FILL_AREA(#164);
#164=FILL_AREA_STYLE('',(#165));
#165=FILL_AREA_STYLE_COLOUR('',#167);
#166=CURVE_STYLE('',#168,POSITIVE_LENGTH_MEASURE(0.1),#167);
#167=COLOUR_RGB('Pin1Rad',0.588,0.588,0.588);
#168=DRAUGHTING_PRE_DEFINED_CURVE_FONT('continuous');
#169=PRESENTATION_STYLE_ASSIGNMENT((#170,#175));
#170=SURFACE_STYLE_USAGE(.BOTH.,#171);
#171=SURFACE_SIDE_STYLE('',(#172));
#172=SURFACE_STYLE_FILL_AREA(#173);
#173=FILL_AREA_STYLE('',(#174));
#174=FILL_AREA_STYLE_COLOUR('',#176);
#175=CURVE_STYLE('',#177,POSITIVE_LENGTH_MEASURE(0.1),#176);
#176=COLOUR_RGB('Pin1Tant',0.459,0.345,0.176);
#177=DRAUGHTING_PRE_DEFINED_CURVE_FONT('continuous');
#178=PRESENTATION_STYLE_ASSIGNMENT((#179,#184));
#179=SURFACE_STYLE_USAGE(.BOTH.,#180);
#180=SURFACE_SIDE_STYLE('',(#181));
#181=SURFACE_STYLE_FILL_AREA(#182);
#182=FILL_AREA_STYLE('',(#183));
#183=FILL_AREA_STYLE_COLOUR('',#185);
#184=CURVE_STYLE('',#186,POSITIVE_LENGTH_MEASURE(0.1),#185);
#185=COLOUR_RGB('Shroud',0.235,0.235,0.235);
#186=DRAUGHTING_PRE_DEFINED_CURVE_FONT('continuous');
#188=MANIFOLD_SOLID_BREP($,#189);
#189=CLOSED_SHELL('',(#190,#191,#192));
#190=ADVANCED_FACE($,(#196,#195),#213,.T.);
#191=ADVANCED_FACE($,(#197),#193,.F.);
#192=ADVANCED_FACE($,(#198),#194,.T.);
#193=PLANE($,#218);
#194=PLANE($,#219);
#195=FACE_BOUND($,#200,.T.);
#196=FACE_OUTER_BOUND($,#199,.T.);
#197=FACE_OUTER_BOUND($,#201,.T.);
#198=FACE_OUTER_BOUND($,#202,.T.);
#199=EDGE_LOOP($,(#209));
#200=EDGE_LOOP($,(#210));
#201=EDGE_LOOP($,(#211));
#202=EDGE_LOOP($,(#212));
#203=CIRCLE($,#216,0.254);
#204=CIRCLE($,#217,0.254);
#205=VERTEX_POINT('',#234);
#206=VERTEX_POINT('',#236);
#207=EDGE_CURVE($,#205,#205,#203,.T.);
#208=EDGE_CURVE($,#206,#206,#204,.T.);
#209=ORIENTED_EDGE($,*,*,#207,.F.);
#210=ORIENTED_EDGE($,*,*,#208,.F.);
#211=ORIENTED_EDGE($,*,*,#208,.T.);
#212=ORIENTED_EDGE($,*,*,#207,.T.);
#213=CYLINDRICAL_SURFACE($,#215,0.254);
#214=AXIS2_PLACEMENT_3D('placement',#232,#220,#221);
#215=AXIS2_PLACEMENT_3D($,#233,#222,#223);
#216=AXIS2_PLACEMENT_3D($,#235,#224,#225);
#217=AXIS2_PLACEMENT_3D($,#237,#226,#227);
#218=AXIS2_PLACEMENT_3D($,#238,#228,#229);
#219=AXIS2_PLACEMENT_3D($,#239,#230,#231);
#220=DIRECTION('axis',(0.,1.,0.));
#221=DIRECTION('refdir',(1.,0.,0.));
#222=DIRECTION('',(0.,0.,1.));
#223=DIRECTION('',(1.,0.,0.));
#224=DIRECTION('',(0.,0.,1.));
#225=DIRECTION('',(1.,0.,0.));
#226=DIRECTION('',(0.,0.,-1.));
#227=DIRECTION('',(1.,0.,0.));
#228=DIRECTION('',(0.,0.,1.));
#229=DIRECTION('',(0.,1.,0.));
#230=DIRECTION('',(0.,0.,1.));
#231=DIRECTION('',(0.,1.,0.));
#232=CARTESIAN_POINT('',(0.,0.,0.));
#233=CARTESIAN_POINT('',(2.54,0.0,-4.572));
#234=CARTESIAN_POINT('',(2.286,0.0,0.0));
#235=CARTESIAN_POINT('',(2.54,0.0,0.0));
#236=CARTESIAN_POINT('',(2.286,0.0,-4.572));
#237=CARTESIAN_POINT('',(2.54,0.0,-4.572));
#238=CARTESIAN_POINT('',(2.54,0.0,-4.572));
#239=CARTESIAN_POINT('',(2.54,0.0,0.0));
#240=STYLED_ITEM('color',(#34),#190);
#241=STYLED_ITEM('color',(#34),#191);
#242=STYLED_ITEM('color',(#34),#192);
#243=MANIFOLD_SOLID_BREP($,#244);
#244=CLOSED_SHELL('',(#245,#246,#247));
#245=ADVANCED_FACE($,(#251,#250),#268,.T.);
#246=ADVANCED_FACE($,(#252),#248,.F.);
#247=ADVANCED_FACE($,(#253),#249,.T.);
#248=PLANE($,#273);
#249=PLANE($,#274);
#250=FACE_BOUND($,#255,.T.);
#251=FACE_OUTER_BOUND($,#254,.T.);
#252=FACE_OUTER_BOUND($,#256,.T.);
#253=FACE_OUTER_BOUND($,#257,.T.);
#254=EDGE_LOOP($,(#264));
#255=EDGE_LOOP($,(#265));
#256=EDGE_LOOP($,(#266));
#257=EDGE_LOOP($,(#267));
#258=CIRCLE($,#271,0.254);
#259=CIRCLE($,#272,0.254);
#260=VERTEX_POINT('',#289);
#261=VERTEX_POINT('',#291);
#262=EDGE_CURVE($,#260,#260,#258,.T.);
#263=EDGE_CURVE($,#261,#261,#259,.T.);
#264=ORIENTED_EDGE($,*,*,#262,.F.);
#265=ORIENTED_EDGE($,*,*,#263,.F.);
#266=ORIENTED_EDGE($,*,*,#263,.T.);
#267=ORIENTED_EDGE($,*,*,#262,.T.);
#268=CYLINDRICAL_SURFACE($,#270,0.254);
#269=AXIS2_PLACEMENT_3D('placement',#287,#275,#276);
#270=AXIS2_PLACEMENT_3D($,#288,#277,#278);
#271=AXIS2_PLACEMENT_3D($,#290,#279,#280);
#272=AXIS2_PLACEMENT_3D($,#292,#281,#282);
#273=AXIS2_PLACEMENT_3D($,#293,#283,#284);
#274=AXIS2_PLACEMENT_3D($,#294,#285,#286);
#275=DIRECTION('axis',(0.,1.,0.));
#276=DIRECTION('refdir',(1.,0.,0.));
#277=DIRECTION('',(0.,0.,1.));
#278=DIRECTION('',(1.,0.,0.));
#279=DIRECTION('',(0.,0.,1.));
#280=DIRECTION('',(1.,0.,0.));
#281=DIRECTION('',(0.,0.,-1.));
#282=DIRECTION('',(1.,0.,0.));
#283=DIRECTION('',(0.,0.,1.));
#284=DIRECTION('',(0.,1.,0.));
#285=DIRECTION('',(0.,0.,1.));
#286=DIRECTION('',(0.,1.,0.));
#287=CARTESIAN_POINT('',(0.,0.,0.));
#288=CARTESIAN_POINT('',(0.0,0.0,-4.572));
#289=CARTESIAN_POINT('',(-0.254,0.0,0.0));
#290=CARTESIAN_POINT('',(0.0,0.0,0.0));
#291=CARTESIAN_POINT('',(-0.254,0.0,-4.572));
#292=CARTESIAN_POINT('',(0.0,0.0,-4.572));
#293=CARTESIAN_POINT('',(0.0,0.0,-4.572));
#294=CARTESIAN_POINT('',(0.0,0.0,0.0));
#295=STYLED_ITEM('color',(#34),#245);
#296=STYLED_ITEM('color',(#34),#246);
#297=STYLED_ITEM('color',(#34),#247);
#299=MANIFOLD_SOLID_BREP($,#300);
#300=CLOSED_SHELL('',(#302,#351,#404,#435));
#301=STYLED_ITEM('',(#43),#302);
#302=ADVANCED_FACE('',(#308),#303,.T.);
#303=PLANE('',#304);
#304=AXIS2_PLACEMENT_3D('',#305,#306,#307);
#305=CARTESIAN_POINT('',(-1.016,-0.318,0.0));
#306=DIRECTION('',(0.0,-1.0,0.0));
#307=DIRECTION('',(0.,0.,1.));
#308=FACE_OUTER_BOUND('',#309,.T.);
#309=EDGE_LOOP('',(#310,#320,#330,#340));
#313=CARTESIAN_POINT('',(3.556,-0.318,0.0));
#312=VERTEX_POINT('',#313);
#315=CARTESIAN_POINT('',(-1.016,-0.318,0.0));
#314=VERTEX_POINT('',#315);
#311=EDGE_CURVE('',#312,#314,#316,.T.);
#316=LINE('',#313,#318);
#318=VECTOR('',#319,4.572);
#319=DIRECTION('',(-1.0,0.0,0.0));
#310=ORIENTED_EDGE('',*,*,#311,.F.);
#323=CARTESIAN_POINT('',(3.556,-0.318,4.953));
#322=VERTEX_POINT('',#323);
#321=EDGE_CURVE('',#322,#312,#326,.T.);
#326=LINE('',#323,#328);
#328=VECTOR('',#329,4.953);
#329=DIRECTION('',(0.0,0.0,-1.0));
#320=ORIENTED_EDGE('',*,*,#321,.F.);
#333=CARTESIAN_POINT('',(-1.016,-0.318,4.953));
#332=VERTEX_POINT('',#333);
#331=EDGE_CURVE('',#332,#322,#336,.T.);
#336=LINE('',#333,#338);
#338=VECTOR('',#339,4.572);
#339=DIRECTION('',(1.0,0.0,0.0));
#330=ORIENTED_EDGE('',*,*,#331,.F.);
#341=EDGE_CURVE('',#314,#332,#346,.T.);
#346=LINE('',#315,#348);
#348=VECTOR('',#349,4.953);
#349=DIRECTION('',(0.0,0.0,1.0));
#340=ORIENTED_EDGE('',*,*,#341,.F.);
#350=STYLED_ITEM('color',(#43),#351);
#351=ADVANCED_FACE($,(#357),#352,.T.);
#352=CYLINDRICAL_SURFACE($,#353,2.4765);
#353=AXIS2_PLACEMENT_3D($,#354,#355,#356);
#354=CARTESIAN_POINT('',(1.27,0.635,0.0));
#355=DIRECTION('',(0.,0.,1.));
#356=DIRECTION('',(0.,1.,0.));
#357=FACE_OUTER_BOUND($,#358,.T.);
#358=EDGE_LOOP($,(#381, #359, #391, #370));
#381=ORIENTED_EDGE('',*,*,#341,.T.);
#360=EDGE_CURVE($,#322,#332,#365,.T.);
#365=CIRCLE($,#366,2.4765);
#367=CARTESIAN_POINT('',(1.27,0.635,4.953));
#366=AXIS2_PLACEMENT_3D($,#367,#368,#369);
#368=DIRECTION('',(0.0,0.0,1.0));
#369=DIRECTION('',(-1.0,0.0,0.0));
#359=ORIENTED_EDGE('',*,*,#360,.F.);
#391=ORIENTED_EDGE('',*,*,#321,.T.);
#371=EDGE_CURVE($,#314,#312,#376,.T.);
#376=CIRCLE($,#377,2.4765);
#378=CARTESIAN_POINT('',(1.27,0.635,0.0));
#377=AXIS2_PLACEMENT_3D($,#378,#379,#380);
#379=DIRECTION('',(0.0,0.0,-1.0));
#380=DIRECTION('',(1.0,0.0,0.0));
#370=ORIENTED_EDGE('',*,*,#371,.F.);
#403=STYLED_ITEM('color',(#43),#404);
#404=ADVANCED_FACE($,(#410),#405,.T.);
#405=PLANE($,#406);
#406=AXIS2_PLACEMENT_3D($,#407,#408,#409);
#407=CARTESIAN_POINT('',(1.27,0.635,4.953));
#408=DIRECTION('',(0.,0.,1.));
#409=DIRECTION('',(1.,0.,0.));
#410=FACE_OUTER_BOUND($,#411,.T.);
#411=EDGE_LOOP($,(#412, #423));
#412=ORIENTED_EDGE('',*,*,#331,.T.);
#423=ORIENTED_EDGE('',*,*,#360,.T.);
#434=STYLED_ITEM('color',(#43),#435);
#435=ADVANCED_FACE($,(#441),#436,.T.);
#436=PLANE($,#437);
#437=AXIS2_PLACEMENT_3D($,#438,#439,#440);
#438=CARTESIAN_POINT('',(1.27,0.635,0.0));
#439=DIRECTION('',(0.,0.,-1.));
#440=DIRECTION('',(-1.,0.,0.));
#441=FACE_OUTER_BOUND($,#442,.T.);
#442=EDGE_LOOP($,(#443, #454));
#443=ORIENTED_EDGE('',*,*,#311,.T.);
#454=ORIENTED_EDGE('',*,*,#371,.T.);
#466=MANIFOLD_SOLID_BREP($,#467);
#467=CLOSED_SHELL('',(#469,#500,#531,#584,#637,#690,#743,#796,#849,#902,#955,#1008));
#468=STYLED_ITEM('color',(#34),#469);
#469=ADVANCED_FACE($,(#475),#470,.T.);
#470=PLANE($,#471);
#471=AXIS2_PLACEMENT_3D($,#472,#473,#474);
#472=CARTESIAN_POINT('',(1.27,0.0,0.0));
#473=DIRECTION('',(0.,0.,1.));
#474=DIRECTION('',(0.,1.,0.));
#475=FACE_OUTER_BOUND($,#476,.T.);
#476=EDGE_LOOP($,(#477, #488));
#480=CARTESIAN_POINT('',(1.27,-0.254,0.0));
#479=VERTEX_POINT('',#480);
#482=CARTESIAN_POINT('',(1.27,0.254,0.0));
#481=VERTEX_POINT('',#482);
#478=EDGE_CURVE($,#479,#481,#483,.T.);
#483=CIRCLE($,#484,0.254);
#485=CARTESIAN_POINT('',(1.27,0.0,0.0));
#484=AXIS2_PLACEMENT_3D($,#485,#486,#487);
#486=DIRECTION('',(0.0,0.0,-1.0));
#487=DIRECTION('',(0.0,1.0,0.0));
#477=ORIENTED_EDGE('',*,*,#478,.F.);
#489=EDGE_CURVE($,#481,#479,#494,.T.);
#494=CIRCLE($,#495,0.254);
#495=AXIS2_PLACEMENT_3D($,#485,#497,#498);
#497=DIRECTION('',(0.0,0.0,-1.0));
#498=DIRECTION('',(0.0,-1.0,0.0));
#488=ORIENTED_EDGE('',*,*,#489,.F.);
#499=STYLED_ITEM('color',(#34),#500);
#500=ADVANCED_FACE($,(#506),#501,.T.);
#501=PLANE($,#502);
#502=AXIS2_PLACEMENT_3D($,#503,#504,#505);
#503=CARTESIAN_POINT('',(1.27,1.27,-4.572));
#504=DIRECTION('',(0.,0.,-1.));
#505=DIRECTION('',(0.,1.,0.));
#506=FACE_OUTER_BOUND($,#507,.T.);
#507=EDGE_LOOP($,(#508, #519));
#511=CARTESIAN_POINT('',(1.27,1.016,-4.572));
#510=VERTEX_POINT('',#511);
#513=CARTESIAN_POINT('',(1.27,1.524,-4.572));
#512=VERTEX_POINT('',#513);
#509=EDGE_CURVE($,#510,#512,#514,.T.);
#514=CIRCLE($,#515,0.254);
#516=CARTESIAN_POINT('',(1.27,1.27,-4.572));
#515=AXIS2_PLACEMENT_3D($,#516,#517,#518);
#517=DIRECTION('',(0.0,0.0,1.0));
#518=DIRECTION('',(0.0,1.0,0.0));
#508=ORIENTED_EDGE('',*,*,#509,.F.);
#520=EDGE_CURVE($,#512,#510,#525,.T.);
#525=CIRCLE($,#526,0.254);
#526=AXIS2_PLACEMENT_3D($,#516,#528,#529);
#528=DIRECTION('',(0.0,0.0,1.0));
#529=DIRECTION('',(0.0,-1.0,0.0));
#519=ORIENTED_EDGE('',*,*,#520,.F.);
#530=STYLED_ITEM('color',(#34),#531);
#531=ADVANCED_FACE($,(#537),#532,.T.);
#532=CYLINDRICAL_SURFACE($,#533,0.254);
#533=AXIS2_PLACEMENT_3D($,#534,#535,#536);
#534=CARTESIAN_POINT('',(1.27,0.0,-0.203));
#535=DIRECTION('',(0.,0.,1.));
#536=DIRECTION('',(-1.0,0.0,0.0));
#537=FACE_OUTER_BOUND($,#538,.T.);
#538=EDGE_LOOP($,(#561, #539, #571, #550));
#564=CARTESIAN_POINT('',(1.27,-0.254,-0.203));
#563=VERTEX_POINT('',#564);
#562=EDGE_CURVE('',#563,#479,#567,.T.);
#567=LINE('',#564,#569);
#569=VECTOR('',#570,0.2032);
#570=DIRECTION('',(0.0,0.0,1.0));
#561=ORIENTED_EDGE('',*,*,#562,.F.);
#542=CARTESIAN_POINT('',(1.27,0.254,-0.203));
#541=VERTEX_POINT('',#542);
#540=EDGE_CURVE($,#541,#563,#545,.T.);
#545=CIRCLE($,#546,0.254);
#547=CARTESIAN_POINT('',(1.27,0.0,-0.203));
#546=AXIS2_PLACEMENT_3D($,#547,#548,#549);
#548=DIRECTION('',(0.0,0.0,-1.0));
#549=DIRECTION('',(0.0,-1.0,0.0));
#539=ORIENTED_EDGE('',*,*,#540,.F.);
#572=EDGE_CURVE('',#481,#541,#577,.T.);
#577=LINE('',#482,#579);
#579=VECTOR('',#580,0.2032);
#580=DIRECTION('',(0.0,0.0,-1.0));
#571=ORIENTED_EDGE('',*,*,#572,.F.);
#550=ORIENTED_EDGE('',*,*,#489,.T.);
#583=STYLED_ITEM('color',(#34),#584);
#584=ADVANCED_FACE($,(#590),#585,.T.);
#585=CYLINDRICAL_SURFACE($,#586,0.254);
#586=AXIS2_PLACEMENT_3D($,#587,#588,#589);
#587=CARTESIAN_POINT('',(1.27,0.0,-0.203));
#588=DIRECTION('',(0.,0.,1.));
#589=DIRECTION('',(-1.0,0.0,0.0));
#590=FACE_OUTER_BOUND($,#591,.T.);
#591=EDGE_LOOP($,(#614, #592, #624, #603));
#614=ORIENTED_EDGE('',*,*,#572,.T.);
#593=EDGE_CURVE($,#563,#541,#598,.T.);
#598=CIRCLE($,#599,0.254);
#599=AXIS2_PLACEMENT_3D($,#547,#601,#602);
#601=DIRECTION('',(0.0,0.0,-1.0));
#602=DIRECTION('',(0.0,1.0,0.0));
#592=ORIENTED_EDGE('',*,*,#593,.F.);
#624=ORIENTED_EDGE('',*,*,#562,.T.);
#603=ORIENTED_EDGE('',*,*,#478,.T.);
#636=STYLED_ITEM('color',(#34),#637);
#637=ADVANCED_FACE($,(#643),#638,.T.);
#638=CYLINDRICAL_SURFACE($,#639,0.254);
#639=AXIS2_PLACEMENT_3D($,#640,#641,#642);
#640=CARTESIAN_POINT('',(1.27,1.27,-4.572));
#641=DIRECTION('',(0.,0.,1.));
#642=DIRECTION('',(-1.0,0.0,0.0));
#643=FACE_OUTER_BOUND($,#644,.T.);
#644=EDGE_LOOP($,(#667, #645, #677, #656));
#672=CARTESIAN_POINT('',(1.27,1.016,-2.032));
#671=VERTEX_POINT('',#672);
#668=EDGE_CURVE('',#510,#671,#673,.T.);
#673=LINE('',#511,#675);
#675=VECTOR('',#676,2.54);
#676=DIRECTION('',(0.0,0.0,1.0));
#667=ORIENTED_EDGE('',*,*,#668,.F.);
#645=ORIENTED_EDGE('',*,*,#509,.T.);
#680=CARTESIAN_POINT('',(1.27,1.524,-2.032));
#679=VERTEX_POINT('',#680);
#678=EDGE_CURVE('',#679,#512,#683,.T.);
#683=LINE('',#680,#685);
#685=VECTOR('',#686,2.54);
#686=DIRECTION('',(0.0,0.0,-1.0));
#677=ORIENTED_EDGE('',*,*,#678,.F.);
#657=EDGE_CURVE($,#671,#679,#662,.T.);
#662=CIRCLE($,#663,0.254);
#664=CARTESIAN_POINT('',(1.27,1.27,-2.032));
#663=AXIS2_PLACEMENT_3D($,#664,#665,#666);
#665=DIRECTION('',(0.0,0.0,1.0));
#666=DIRECTION('',(0.0,1.0,0.0));
#656=ORIENTED_EDGE('',*,*,#657,.F.);
#689=STYLED_ITEM('color',(#34),#690);
#690=ADVANCED_FACE($,(#696),#691,.T.);
#691=CYLINDRICAL_SURFACE($,#692,0.254);
#692=AXIS2_PLACEMENT_3D($,#693,#694,#695);
#693=CARTESIAN_POINT('',(1.27,1.27,-4.572));
#694=DIRECTION('',(0.,0.,1.));
#695=DIRECTION('',(-1.0,0.0,0.0));
#696=FACE_OUTER_BOUND($,#697,.T.);
#697=EDGE_LOOP($,(#720, #698, #730, #709));
#720=ORIENTED_EDGE('',*,*,#678,.T.);
#698=ORIENTED_EDGE('',*,*,#520,.T.);
#730=ORIENTED_EDGE('',*,*,#668,.T.);
#710=EDGE_CURVE($,#679,#671,#715,.T.);
#715=CIRCLE($,#716,0.254);
#716=AXIS2_PLACEMENT_3D($,#664,#718,#719);
#718=DIRECTION('',(0.0,0.0,1.0));
#719=DIRECTION('',(0.0,-1.0,0.0));
#709=ORIENTED_EDGE('',*,*,#710,.F.);
#742=STYLED_ITEM('color',(#34),#743);
#743=ADVANCED_FACE($,(#749),#744,.T.);
#744=CYLINDRICAL_SURFACE($,#745,0.254);
#745=AXIS2_PLACEMENT_3D($,#746,#747,#748);
#746=CARTESIAN_POINT('',(1.27,1.14,-1.692));
#747=DIRECTION('',(0.0,-0.66,0.751));
#748=DIRECTION('',(-1.0,0.0,0.0));
#749=FACE_OUTER_BOUND($,#750,.T.);
#750=EDGE_LOOP($,(#773, #751, #783, #762));
#776=CARTESIAN_POINT('',(1.27,0.951,-1.862));
#775=VERTEX_POINT('',#776);
#778=CARTESIAN_POINT('',(1.27,-0.059,-0.713));
#777=VERTEX_POINT('',#778);
#774=EDGE_CURVE('',#775,#777,#779,.T.);
#779=LINE('',#776,#781);
#781=VECTOR('',#782,1.52982317683588);
#782=DIRECTION('',(0.0,-0.66,0.751));
#773=ORIENTED_EDGE('',*,*,#774,.F.);
#754=CARTESIAN_POINT('',(1.27,1.329,-1.523));
#753=VERTEX_POINT('',#754);
#752=EDGE_CURVE($,#753,#775,#757,.T.);
#757=CIRCLE($,#758,0.254);
#759=CARTESIAN_POINT('',(1.27,1.14,-1.692));
#758=AXIS2_PLACEMENT_3D($,#759,#760,#761);
#760=DIRECTION('',(0.0,0.66,-0.751));
#761=DIRECTION('',(0.0,-0.744,-0.669));
#751=ORIENTED_EDGE('',*,*,#752,.F.);
#786=CARTESIAN_POINT('',(1.27,0.319,-0.373));
#785=VERTEX_POINT('',#786);
#784=EDGE_CURVE('',#785,#753,#789,.T.);
#789=LINE('',#786,#791);
#791=VECTOR('',#792,1.52982317683588);
#792=DIRECTION('',(0.0,0.66,-0.751));
#783=ORIENTED_EDGE('',*,*,#784,.F.);
#763=EDGE_CURVE($,#777,#785,#768,.T.);
#768=CIRCLE($,#769,0.254);
#770=CARTESIAN_POINT('',(1.27,0.13,-0.543));
#769=AXIS2_PLACEMENT_3D($,#770,#771,#772);
#771=DIRECTION('',(0.0,-0.66,0.751));
#772=DIRECTION('',(0.0,0.744,0.669));
#762=ORIENTED_EDGE('',*,*,#763,.F.);
#795=STYLED_ITEM('color',(#34),#796);
#796=ADVANCED_FACE($,(#802),#797,.T.);
#797=CYLINDRICAL_SURFACE($,#798,0.254);
#798=AXIS2_PLACEMENT_3D($,#799,#800,#801);
#799=CARTESIAN_POINT('',(1.27,1.14,-1.692));
#800=DIRECTION('',(0.0,-0.66,0.751));
#801=DIRECTION('',(-1.0,0.0,0.0));
#802=FACE_OUTER_BOUND($,#803,.T.);
#803=EDGE_LOOP($,(#826, #804, #836, #815));
#826=ORIENTED_EDGE('',*,*,#784,.T.);
#805=EDGE_CURVE($,#775,#753,#810,.T.);
#810=CIRCLE($,#811,0.254);
#811=AXIS2_PLACEMENT_3D($,#759,#813,#814);
#813=DIRECTION('',(0.0,0.66,-0.751));
#814=DIRECTION('',(0.0,0.744,0.669));
#804=ORIENTED_EDGE('',*,*,#805,.F.);
#836=ORIENTED_EDGE('',*,*,#774,.T.);
#816=EDGE_CURVE($,#785,#777,#821,.T.);
#821=CIRCLE($,#822,0.254);
#822=AXIS2_PLACEMENT_3D($,#770,#824,#825);
#824=DIRECTION('',(0.0,-0.66,0.751));
#825=DIRECTION('',(0.0,0.744,0.669));
#815=ORIENTED_EDGE('',*,*,#816,.F.);
#848=STYLED_ITEM('color',(#34),#849);
#849 = ADVANCED_FACE ( '', ( #855 ), #850, .T. ) ;
#850 = TOROIDAL_SURFACE ( '', #851, 0.508, 0.254 ) ;
#851 = AXIS2_PLACEMENT_3D ( '', #852, #853, #854 ) ;
#852 = CARTESIAN_POINT ( '',  ( 1.27,0.508,-0.203 ) ) ;
#853 = DIRECTION ( '',  ( 1.0,0.0,0.0 ) ) ;
#854 = DIRECTION ( '',  ( 0.0000000000000000000, 0.0000000000000000000, -1.000000000000000000 ) ) ;
#855 = FACE_OUTER_BOUND ( '', #856, .T. ) ;
#856 = EDGE_LOOP ( '', ( #857, #868, #879, #890 ) ) ;
#857=ORIENTED_EDGE('',*,*,#540,.T.);
#869=EDGE_CURVE($,#777,#563,#874,.T.);
#874=CIRCLE($,#875,0.762);
#876=CARTESIAN_POINT('',(1.27,0.508,-0.203));
#875=AXIS2_PLACEMENT_3D($,#876,#877,#878);
#877=DIRECTION('',(-1.0,0.0,0.0));
#878=DIRECTION('',(0.0,0.0,1.0));
#868=ORIENTED_EDGE('',*,*,#869,.F.);
#879=ORIENTED_EDGE('',*,*,#763,.T.);
#891=EDGE_CURVE($,#541,#785,#896,.T.);
#896=CIRCLE($,#897,0.254);
#897=AXIS2_PLACEMENT_3D($,#876,#899,#900);
#899=DIRECTION('',(1.0,0.0,0.0));
#900=DIRECTION('',(0.0,0.0,1.0));
#890=ORIENTED_EDGE('',*,*,#891,.F.);
#901=STYLED_ITEM('color',(#34),#902);
#902 = ADVANCED_FACE ( '', ( #908 ), #903, .T. ) ;
#903 = TOROIDAL_SURFACE ( '', #904, 0.508, 0.254 ) ;
#904 = AXIS2_PLACEMENT_3D ( '', #905, #906, #907 ) ;
#905 = CARTESIAN_POINT ( '',  ( 1.27,0.508,-0.203 ) ) ;
#906 = DIRECTION ( '',  ( -1.0,0.0,0.0 ) ) ;
#907 = DIRECTION ( '',  ( 0.0000000000000000000, 0.0000000000000000000, 1.000000000000000000 ) ) ;
#908 = FACE_OUTER_BOUND ( '', #909, .T. ) ;
#909 = EDGE_LOOP ( '', ( #910, #921, #932, #943 ) ) ;
#910=ORIENTED_EDGE('',*,*,#593,.T.);
#921=ORIENTED_EDGE('',*,*,#891,.T.);
#932=ORIENTED_EDGE('',*,*,#816,.T.);
#943=ORIENTED_EDGE('',*,*,#869,.T.);
#954=STYLED_ITEM('color',(#34),#955);
#955 = ADVANCED_FACE ( '', ( #961 ), #956, .T. ) ;
#956 = TOROIDAL_SURFACE ( '', #957, 0.508, 0.254 ) ;
#957 = AXIS2_PLACEMENT_3D ( '', #958, #959, #960 ) ;
#958 = CARTESIAN_POINT ( '',  ( 1.27,0.762,-2.032 ) ) ;
#959 = DIRECTION ( '',  ( -1.0,0.0,0.0 ) ) ;
#960 = DIRECTION ( '',  ( 0.0000000000000000000, 0.0000000000000000000, 1.000000000000000000 ) ) ;
#961 = FACE_OUTER_BOUND ( '', #962, .T. ) ;
#962 = EDGE_LOOP ( '', ( #963, #974, #985, #996 ) ) ;
#963=ORIENTED_EDGE('',*,*,#805,.T.);
#975=EDGE_CURVE($,#679,#753,#980,.T.);
#980=CIRCLE($,#981,0.762);
#982=CARTESIAN_POINT('',(1.27,0.762,-2.032));
#981=AXIS2_PLACEMENT_3D($,#982,#983,#984);
#983=DIRECTION('',(1.0,0.0,0.0));
#984=DIRECTION('',(0.0,0.0,1.0));
#974=ORIENTED_EDGE('',*,*,#975,.F.);
#985=ORIENTED_EDGE('',*,*,#710,.T.);
#997=EDGE_CURVE($,#775,#671,#1002,.T.);
#1002=CIRCLE($,#1003,0.254);
#1003=AXIS2_PLACEMENT_3D($,#982,#1005,#1006);
#1005=DIRECTION('',(-1.0,0.0,0.0));
#1006=DIRECTION('',(0.0,0.0,1.0));
#996=ORIENTED_EDGE('',*,*,#997,.F.);
#1007=STYLED_ITEM('color',(#34),#1008);
#1008 = ADVANCED_FACE ( '', ( #1014 ), #1009, .T. ) ;
#1009 = TOROIDAL_SURFACE ( '', #1010, 0.508, 0.254 ) ;
#1010 = AXIS2_PLACEMENT_3D ( '', #1011, #1012, #1013 ) ;
#1011 = CARTESIAN_POINT ( '',  ( 1.27,0.762,-2.032 ) ) ;
#1012 = DIRECTION ( '',  ( 1.0,0.0,0.0 ) ) ;
#1013 = DIRECTION ( '',  ( 0.0000000000000000000, 0.0000000000000000000, 1.000000000000000000 ) ) ;
#1014 = FACE_OUTER_BOUND ( '', #1015, .T. ) ;
#1015 = EDGE_LOOP ( '', ( #1016, #1027, #1038, #1049 ) ) ;
#1016=ORIENTED_EDGE('',*,*,#752,.T.);
#1027=ORIENTED_EDGE('',*,*,#997,.T.);
#1038=ORIENTED_EDGE('',*,*,#657,.T.);
#1049=ORIENTED_EDGE('',*,*,#975,.T.);
ENDSEC;
END-ISO-10303-21;
