ISO-10303-21;
HEADER;
/* Generated by software containing ST-Developer
 * from STEP Tools, Inc. (www.steptools.com) 
 */

FILE_DESCRIPTION(
/* description */ (''),
/* implementation_level */ '2;1');

FILE_NAME(
/* name */ '(Unsaved).step',
/* time_stamp */ '2023-09-13T17:15:18-04:00',
/* author */ (''),
/* organization */ (''),
/* preprocessor_version */ 'ST-DEVELOPER v20',
/* originating_system */ 'Autodesk Translation Framework v12.9.0.99',
/* authorisation */ '');

FILE_SCHEMA (('AUTOMOTIVE_DESIGN { 1 0 10303 214 3 1 1 }'));
ENDSEC;

DATA;
#10=MECHANICAL_DESIGN_GEOMETRIC_PRESENTATION_REPRESENTATION('',(#13),#125);
#11=SHAPE_REPRESENTATION_RELATIONSHIP('SRR','None',#135,#12);
#12=ADVANCED_BREP_SHAPE_REPRESENTATION('',(#14),#124);
#13=STYLED_ITEM('',(#144),#14);
#14=MANIFOLD_SOLID_BREP('Body1',#65);
#15=FACE_BOUND('',#26,.T.);
#16=FACE_BOUND('',#28,.T.);
#17=PLANE('',#85);
#18=PLANE('',#86);
#19=FACE_OUTER_BOUND('',#23,.T.);
#20=FACE_OUTER_BOUND('',#24,.T.);
#21=FACE_OUTER_BOUND('',#25,.T.);
#22=FACE_OUTER_BOUND('',#27,.T.);
#23=EDGE_LOOP('',(#47,#48,#49,#50));
#24=EDGE_LOOP('',(#51,#52,#53,#54));
#25=EDGE_LOOP('',(#55));
#26=EDGE_LOOP('',(#56));
#27=EDGE_LOOP('',(#57));
#28=EDGE_LOOP('',(#58));
#29=LINE('',#112,#31);
#30=LINE('',#118,#32);
#31=VECTOR('',#93,0.047244094488189);
#32=VECTOR('',#100,0.15748031496063);
#33=CIRCLE('',#80,0.047244094488189);
#34=CIRCLE('',#81,0.047244094488189);
#35=CIRCLE('',#83,0.15748031496063);
#36=CIRCLE('',#84,0.15748031496063);
#37=VERTEX_POINT('',#109);
#38=VERTEX_POINT('',#111);
#39=VERTEX_POINT('',#115);
#40=VERTEX_POINT('',#117);
#41=EDGE_CURVE('',#37,#37,#33,.T.);
#42=EDGE_CURVE('',#37,#38,#29,.T.);
#43=EDGE_CURVE('',#38,#38,#34,.T.);
#44=EDGE_CURVE('',#39,#39,#35,.T.);
#45=EDGE_CURVE('',#39,#40,#30,.T.);
#46=EDGE_CURVE('',#40,#40,#36,.T.);
#47=ORIENTED_EDGE('',*,*,#41,.F.);
#48=ORIENTED_EDGE('',*,*,#42,.T.);
#49=ORIENTED_EDGE('',*,*,#43,.T.);
#50=ORIENTED_EDGE('',*,*,#42,.F.);
#51=ORIENTED_EDGE('',*,*,#44,.F.);
#52=ORIENTED_EDGE('',*,*,#45,.T.);
#53=ORIENTED_EDGE('',*,*,#46,.T.);
#54=ORIENTED_EDGE('',*,*,#45,.F.);
#55=ORIENTED_EDGE('',*,*,#44,.T.);
#56=ORIENTED_EDGE('',*,*,#41,.T.);
#57=ORIENTED_EDGE('',*,*,#46,.F.);
#58=ORIENTED_EDGE('',*,*,#43,.F.);
#59=CYLINDRICAL_SURFACE('',#79,0.047244094488189);
#60=CYLINDRICAL_SURFACE('',#82,0.15748031496063);
#61=ADVANCED_FACE('',(#19),#59,.F.);
#62=ADVANCED_FACE('',(#20),#60,.T.);
#63=ADVANCED_FACE('',(#21,#15),#17,.T.);
#64=ADVANCED_FACE('',(#22,#16),#18,.F.);
#65=CLOSED_SHELL('',(#61,#62,#63,#64));
#66=DERIVED_UNIT_ELEMENT(#68,1.);
#67=DERIVED_UNIT_ELEMENT(#129,-3.);
#68=(
MASS_UNIT()
NAMED_UNIT(*)
SI_UNIT(.KILO.,.GRAM.)
);
#69=DERIVED_UNIT((#66,#67));
#70=MEASURE_REPRESENTATION_ITEM('density measure',
POSITIVE_RATIO_MEASURE(7850.),#69);
#71=PROPERTY_DEFINITION_REPRESENTATION(#76,#73);
#72=PROPERTY_DEFINITION_REPRESENTATION(#77,#74);
#73=REPRESENTATION('material name',(#75),#124);
#74=REPRESENTATION('density',(#70),#124);
#75=DESCRIPTIVE_REPRESENTATION_ITEM('Steel','Steel');
#76=PROPERTY_DEFINITION('material property','material name',#137);
#77=PROPERTY_DEFINITION('material property','density of part',#137);
#78=AXIS2_PLACEMENT_3D('',#107,#87,#88);
#79=AXIS2_PLACEMENT_3D('',#108,#89,#90);
#80=AXIS2_PLACEMENT_3D('',#110,#91,#92);
#81=AXIS2_PLACEMENT_3D('',#113,#94,#95);
#82=AXIS2_PLACEMENT_3D('',#114,#96,#97);
#83=AXIS2_PLACEMENT_3D('',#116,#98,#99);
#84=AXIS2_PLACEMENT_3D('',#119,#101,#102);
#85=AXIS2_PLACEMENT_3D('',#120,#103,#104);
#86=AXIS2_PLACEMENT_3D('',#121,#105,#106);
#87=DIRECTION('axis',(0.,0.,1.));
#88=DIRECTION('refdir',(1.,0.,0.));
#89=DIRECTION('center_axis',(0.,0.,1.));
#90=DIRECTION('ref_axis',(1.,0.,0.));
#91=DIRECTION('center_axis',(0.,0.,-1.));
#92=DIRECTION('ref_axis',(1.,0.,0.));
#93=DIRECTION('',(0.,0.,-1.));
#94=DIRECTION('center_axis',(0.,0.,-1.));
#95=DIRECTION('ref_axis',(1.,0.,0.));
#96=DIRECTION('center_axis',(0.,0.,1.));
#97=DIRECTION('ref_axis',(1.,0.,0.));
#98=DIRECTION('center_axis',(0.,0.,1.));
#99=DIRECTION('ref_axis',(1.,0.,0.));
#100=DIRECTION('',(0.,0.,-1.));
#101=DIRECTION('center_axis',(0.,0.,1.));
#102=DIRECTION('ref_axis',(1.,0.,0.));
#103=DIRECTION('center_axis',(0.,0.,1.));
#104=DIRECTION('ref_axis',(1.,0.,0.));
#105=DIRECTION('center_axis',(0.,0.,1.));
#106=DIRECTION('ref_axis',(1.,0.,0.));
#107=CARTESIAN_POINT('',(0.,0.,0.));
#108=CARTESIAN_POINT('Origin',(0.,0.,0.));
#109=CARTESIAN_POINT('',(-0.047244094488189,-5.78573290935757E-18,0.0078740157480315));
#110=CARTESIAN_POINT('Origin',(0.,0.,0.0078740157480315));
#111=CARTESIAN_POINT('',(-0.047244094488189,-5.78573290935757E-18,0.));
#112=CARTESIAN_POINT('',(-0.047244094488189,-5.78573290935757E-18,0.));
#113=CARTESIAN_POINT('Origin',(0.,0.,0.));
#114=CARTESIAN_POINT('Origin',(0.,0.,0.));
#115=CARTESIAN_POINT('',(-0.15748031496063,-1.92857763645252E-17,0.0078740157480315));
#116=CARTESIAN_POINT('Origin',(0.,0.,0.0078740157480315));
#117=CARTESIAN_POINT('',(-0.15748031496063,-1.92857763645252E-17,0.));
#118=CARTESIAN_POINT('',(-0.15748031496063,-1.92857763645252E-17,0.));
#119=CARTESIAN_POINT('Origin',(0.,0.,0.));
#120=CARTESIAN_POINT('Origin',(0.,0.,0.0078740157480315));
#121=CARTESIAN_POINT('Origin',(0.,0.,0.));
#122=UNCERTAINTY_MEASURE_WITH_UNIT(LENGTH_MEASURE(0.000393700787401575),
#127,'DISTANCE_ACCURACY_VALUE',
'Maximum model space distance between geometric entities at asserted c
onnectivities');
#123=UNCERTAINTY_MEASURE_WITH_UNIT(LENGTH_MEASURE(0.000393700787401575),
#127,'DISTANCE_ACCURACY_VALUE',
'Maximum model space distance between geometric entities at asserted c
onnectivities');
#124=(
GEOMETRIC_REPRESENTATION_CONTEXT(3)
GLOBAL_UNCERTAINTY_ASSIGNED_CONTEXT((#122))
GLOBAL_UNIT_ASSIGNED_CONTEXT((#127,#131,#132))
REPRESENTATION_CONTEXT('','3D')
);
#125=(
GEOMETRIC_REPRESENTATION_CONTEXT(3)
GLOBAL_UNCERTAINTY_ASSIGNED_CONTEXT((#123))
GLOBAL_UNIT_ASSIGNED_CONTEXT((#127,#131,#132))
REPRESENTATION_CONTEXT('','3D')
);
#126=DIMENSIONAL_EXPONENTS(1.,0.,0.,0.,0.,0.,0.);
#127=(
CONVERSION_BASED_UNIT('inch',#130)
LENGTH_UNIT()
NAMED_UNIT(#126)
);
#128=(
LENGTH_UNIT()
NAMED_UNIT(*)
SI_UNIT(.MILLI.,.METRE.)
);
#129=(
LENGTH_UNIT()
NAMED_UNIT(*)
SI_UNIT($,.METRE.)
);
#130=LENGTH_MEASURE_WITH_UNIT(LENGTH_MEASURE(25.4),#128);
#131=(
NAMED_UNIT(*)
PLANE_ANGLE_UNIT()
SI_UNIT($,.RADIAN.)
);
#132=(
NAMED_UNIT(*)
SI_UNIT($,.STERADIAN.)
SOLID_ANGLE_UNIT()
);
#133=SHAPE_DEFINITION_REPRESENTATION(#134,#135);
#134=PRODUCT_DEFINITION_SHAPE('',$,#137);
#135=SHAPE_REPRESENTATION('',(#78),#124);
#136=PRODUCT_DEFINITION_CONTEXT('part definition',#141,'design');
#137=PRODUCT_DEFINITION('(Unsaved)','(Unsaved)',#138,#136);
#138=PRODUCT_DEFINITION_FORMATION('',$,#143);
#139=PRODUCT_RELATED_PRODUCT_CATEGORY('(Unsaved)','(Unsaved)',(#143));
#140=APPLICATION_PROTOCOL_DEFINITION('international standard',
'automotive_design',2009,#141);
#141=APPLICATION_CONTEXT(
'Core Data for Automotive Mechanical Design Process');
#142=PRODUCT_CONTEXT('part definition',#141,'mechanical');
#143=PRODUCT('(Unsaved)','(Unsaved)',$,(#142));
#144=PRESENTATION_STYLE_ASSIGNMENT((#145));
#145=SURFACE_STYLE_USAGE(.BOTH.,#146);
#146=SURFACE_SIDE_STYLE('',(#147));
#147=SURFACE_STYLE_FILL_AREA(#148);
#148=FILL_AREA_STYLE('Steel - Satin',(#149));
#149=FILL_AREA_STYLE_COLOUR('Steel - Satin',#150);
#150=COLOUR_RGB('Steel - Satin',0.627450980392157,0.627450980392157,0.627450980392157);
ENDSEC;
END-ISO-10303-21;
